Darkness - Street Spirit Chords & Tabs

 

Street Spirit Chords & Tabs

Darkness Chords & Tabs

Version: 3 Type: Tab 0 ratings
1 star 2 stars 3 stars 4 stars 5 stars
comments

Street Spirit Tab

   
-------------------------------------------------------------------------------
              Street Spirit(Fade Out)  - The Darkness 
-------------------------------------------------------------------------------
Tabbed by:Colin
Email:colin383@msn.com

Tuning:Standard

 Intro/Verse:

e|------------------------------------------------------|
B|------------------------------------------------------|
G|------------------------------------------------------|
D|-------------------------------------------------0----| x8
A|-0--0-0-19-0-0-17-0-0-19-0-0-15-0-0-17-0-0-14---------|
E|----------------------------------------------15---15-|

 Pre-chorus:

e|------------------------------||-------------------------------------------------------||
B|------------------------------||o-----------------------------------------------------o||
G|------------------------------||-------------------------------------------------------||
D|-2--------------2-------------||--------------------------------------------------0----||
A|-2--5~-3~-2h3p2-2--3~-2~------||o-0--0-0-19-0-0-17-0-0-19-0-0-15-0-0-17-0-0-14--------o||
E|-0--------------0--------3^---||-----------------------------------------------15---15-||

 Chorus:(any strumming pattern),slow tempo.

e|-----------------------------------------------------------|
B|-----------------------------------------------------------|
G|-5-5-5-5-----------------9-7-9-5-7-4-------5-5-5-5---------|
D|-5-5-5-5-2-2-2-2-7-7-7-7-------------5-0-5-5-5-5-5-2-2-2-2-|
A|-3-3-3-3-2-2-2-2-7-7-7-7-------------------3-3-3-3-2-2-2-2-|
E|-3-3-3-3-0-0-0-0-5-5-5-5-------------------3-3-3-3-0-0-0-0-|

 Solo 1:(This is tremlo picked)

e|---------------------------------------------------------------------------|
B|---------------------------------------------------------------------------|
G|-2-2-2-2-2-2-4-4-5-5-5-5-5-5-7-7-8-8-8-8-8-8-10-10-11-11-11-11-11-11-13-13-|
D|---------------------------------------------------------------------------|
A|---------------------------------------------------------------------------|
E|---------------------------------------------------------------------------|
[ Tab from: http://www.guitartabs.cc/tabs/d/darkness/street_spirit_tab_ver_3.html ]
e|----------------------------------------------------------------------|
B|----------------------------------------------------------------------|
G|-14-14-14-14-14-14-16-16-17-17-17-17-17-17-19-19-20-20-20-20^-20^-20^-|
D|----------------------------------------------------------------------|
A|----------------------------------------------------------------------|
E|----------------------------------------------------------------------|

 Verse:
pm . . . . . . . . . . . . . . .
e|-------------------------------|
B|-------------------------------|
G|-2-2-2-2-2-2-2-2-2-2-2-2-2-2-3-|
D|-2-2-2-2-2-2-2-2-2-2-2-2-2-2-3-| x4
A|-0-0-0-0-0-0-0-0-0-0-0-0-0-0-1-|  (Play verse over the top of this)      
E|-------------------------------|               |
                                                 |
                       __________________________|____________________________
                      /                                                       \
e|-------------------||-------------------------------------------------------||
B|-------------------||o-----------------------------------------------------o||
G|-------------------||-------------------------------------------------------||
D|-2--------------2~-||--------------------------------------------------0----||
A|-2--5~-3~-2h3p2-2~-||o-0--0-0-19-0-0-17-0-0-19-0-0-15-0-0-17-0-0-14--------o||
E|-0--------------0~-||-----------------------------------------------15---15-||

Interlude:
                                                       x3
e|-----0-----0-----0---0---0-||-----0---0---0----------||
B|-------------------1---0---||o------3---1----0------o||  Slow down at
G|---------------------------||------------------2---2-||  the end of the
D|---2-----2-----2-----------||---2----------------2---||  third one.
A|-0-----0-----0-------------||o-0--------------------o||
E|---------------------------||------------------------||

 Screw solo 2,way to hard.Awesome solo,but way to hard!!

 Outro:

e|-----------------------------------------------------------||
B|-----------------------------------------------------------||
G|-5-5-5-5-----------------9-7-9-5-7-4-------5-5-5-5-------2-||
D|-5-5-5-5-2-2-2-2-7-7-7-7-------------5-0-5-5-5-5-5-2~----2-||
A|-3-3-3-3-2-2-2-2-7-7-7-7-------------------3-3-3-3-2~----0-||
E|-3-3-3-3-0-0-0-0-5-5-5-5-------------------3-3-3-3-0~------||

Order:
Intro/Verse
Pre-chorus 
Solo 1
Verse                 RATE PLEASE!!!!
Chorus
Interlude
Solo 2(not tabbed)
Outro

| /  slide up
| \  slide down
| h  hammer-on
| p  pull-off
| ~  let ring
| +  harmonic
| x  Mute note
===============================================================================
Comments