Darkness - Street Spirit Chords & Tabs

 

Street Spirit Chords & Tabs

Darkness Chords & Tabs

Version: 1 Type: Tab 0 ratings
1 star 2 stars 3 stars 4 stars 5 stars
comments

Street Spirit Tab

The Darkness - Street Spirit (Fade Out)

this is the darkness cover of radioheads street spirit which they played on bbc's recovered

intro/verse
|------------------------------------------------------|
|------------------------------------------------------|
|------------------------------------------------------|
|------------------------------------------------------| x8
|-0-0-0-19-0-0-17-0-0-19-0-0-15-0-0-17-0-0-14-12-10-12-|
|------------------------------------------------------|

|---------------------------------|
|---------------------------------|
|---------------------------------|
|---------------------------------| x1
|-0---7---5---3^5^3--0---5---3----|
|-------------------------------3-|

|------------------------------------------------------|
|------------------------------------------------------|
|------------------------------------------------------|
|------------------------------------------------------| x2 
|-0-0-0-19-0-0-17-0-0-19-0-0-15-0-0-17-0-0-14-12-10-12-|
|------------------------------------------------------|
[ Tab from: http://www.guitartabs.cc/tabs/d/darkness/street_spirit_tab.html ]
chorus
|---------------------------------------------|
|----------------3-5-1------------------------|
|-2---------5----------2-0-2---2---------5----|
|-2----5----5------------------2----5----5----|
|-0----5----3------------------0----5----3----|
|------3----------------------------3---------|

bit at end of chorus - very fast strumming
|---------------------------------------------|
|---------------------------------------------|
|-9--11/12--13/14--15/16--17/18--19/20--21/22-|
|-x---x/xx--xx/xx--xx/xx--xx/xx--xx/xx--xx/xx-|bend last chord up slowly
|-7---9/10--11/12--13/14--15/16--17/18--19/20-|
|---------------------------------------------|

verse 2
|-----------------------------------------------------------------|
|-----------------------------------------------------------------|
|-----------------------------------------------------------------|
|-------5-------5-------5-------7-------5-------5-------5-------9-|
|-0-0-0-3-0-0-0-3-0-0-0-3-0-0-0-5-0-0-0-3-0-0-0-3-0-0-0-3-0-0-0-7-|
|------------------------------------------------------------------|

bit before solo
|-----0-------0-------0-----------|
|---------3-------1-------0-------|
|-------2---2---2---2---2---2---2-|
|---2-------------------------2---|
|-0-------------------------------|
|---------------------------------|

sorry but i aint worked out the solo yet will put it on wen i do tho
any questions nameandnumberhere@hotmail.com
Comments