Darkness - Permission To Land Chords & Tabs

 

Permission To Land Chords & Tabs

Darkness Chords & Tabs

Version: 2 Type: Tab 0 ratings
1 star 2 stars 3 stars 4 stars 5 stars
comments

Permission To Land Tab

   
Black shuck

Intro
e:--------------------------------------3
B:-------------------3--------------3---3
C:-------------------2--------------2-2-0    
D:----------2--------0--------4-----0-2-0    x1
A:---22-222-0-22-222-0-22-222-2-0---0-0-x
E:3^-00-000---00-000---00-000----30-----3

e:-----------------------------------3
B:----------------3--------------3---3
C:----------------2--------------2-2-0    
D:-------2--------0--------4-----0-2-0    x4
A:22-222-0-22-222-0-22-222-2-0---0-0-x
E:00-000---00-000---00-000----30-----3

e:-----------------------------------
B:----------------3--------------3-/-
C:----------------2--------------2-/-  
D:-------2--------0--------4-----0-/-  x1
A:22-222-0-22-222-0-22-222-2-0---0-/-
E:00-000---00-000---00-000----30-----

[verse 1]
e:--------------------------------------------------3----
B:----------------------------------------3-33-3333-3-3/-
G:----------------------------------2--22-0-00-0000-0-2/-
D:2-7-7-75-5-5-5-33-3-0-------------2--22-2-22-2222-0-0/-
A:0--0-0--0-0-0-0----0---0-2----0-0-0--00-0-00-0000-x-0/-
E:---------------------3^----2-3-3------------------3----

e:-----------------------3---------------------------------------3----
B:-----------------------3-3-------------------------------------3-3/-
G:-----------------------0-2-------------------------------------0-2/-
D:-7-7-75-7-5-5-5-3-3-3--0-0-----------2-7--7-5-7-5-7-5---33333--0-0/-
A:0-0-0----0-0-0-0---0-0---0-0-5-5-5-0-0---0-------0-0-0-0-----0---0/-
E:-----------------------3--------------------------------------------

[chorus]
e:--------------------------------------3
B:-------------------3--------------3---3
C:-------------------2--------------2-2-0    
D:----------2--------0--------4-----0-2-0    x1
A:---22-222-0-22-222-0-22-222-2-0---0-0-x
E:3^-00-000---00-000---00-000----30-----3

e:-----------------------------------3
B:----------------3--------------3---3
C:----------------2--------------2-2-0    
D:-------2--------0--------4-----0-2-0    x1
A:22-222-0-22-222-0-22-222-2-0---0-0-x
E:00-000---00-000---00-000----30-----3

[verse 2]
e:--------------------------------------------------3----
B:----------------------------------------3-33-3333-3-3/-
G:----------------------------------2--22-0-00-0000-0-2/-
D:2-7-7-75-5-5-5-33-3-0-------------2--22-2-22-2222-0-0/-
A:0--0-0--0-0-0-0----0---0-2----0-0-0--00-0-00-0000-x-0/-
E:---------------------3^----2-3-3------------------3----

e:-----------------------3---------------------------------------3----
B:-----------------------3-3-------------------------------------3-3/-
G:-----------------------0-2-------------------------------------0-2/-
D:-7-7-75-7-5-5-5-3-3-3--0-0-----------2-7--7-5-7-5-7-5---33333--0-0/-
A:0-0-0----0-0-0-0---0-0---0-0-5-5-5-0-0---0-------0-0-0-0-----0---0/-
E:-----------------------3-----------------------------------------

[chorus]
e:--------------------------------------3
B:-------------------3--------------3---3
C:-------------------2--------------2-2-0    
D:----------2--------0--------4-----0-2-0    x1
A:---22-222-0-22-222-0-22-222-2-0---0-0-x
E:3^-00-000---00-000---00-000----30-----3

e:-----------------------------------3
B:----------------3--------------3---3
C:----------------2--------------2-2-0    
D:-------2--------0--------4-----0-2-0    x1
A:22-222-0-22-222-0-22-222-2-0---0-0-x
E:00-000---00-000---00-000----30-----3

[bridge]
e:----------------------------------------------------------x-
B:---------0---------------3--------------------------------x-
G:----------------------------------------------------------x-
D:-----2------------3---------------------------------------x-
A:-------------------------------------0-----2----------------
E:--------------------------------3----------------2-------3--

[solo] this 1s a bit hard, but ill try n get this l8r]

[chorus3]
e:--------------------------------------3
B:-------------------3--------------3---3
C:-------------------2--------------2-2-0    
D:----------2--------0--------4-----0-2-0    x1
A:---22-222-0-22-222-0-22-222-2-0---0-0-x
E:3^-00-000---00-000---00-000----30-----3

e:-----------------------------------3
B:----------------3--------------3---3
C:----------------2--------------2-2-0    
D:-------2--------0--------4-----0-2-0    x3
A:22-222-0-22-222-0-22-222-2-0---0-0-x
E:00-000---00-000---00-000----30-----3

 
 
 
 
 
 The Darkness - Get your hands of my woman

b = bend
h = hammer on
p = pull off
x = dampen note
\ = Slide
() = Extra notes which can be played aswell if you want to.

Intro (bass Plays Main)

BASS PLAYS:
G|------------------------------------------------------------------|
D|------------------------------------------------------------------|
A|-5-5---1-1---------3-3-0----------5-5---1-1---------3-3--3-0-3-4--|
E|-------------1-1----------3-3-1---------------1-1-----------------|

GUITAR PLAYS:
e|---------------|
b|---------------|
g|--7---Let------|
d|--7----It------|
a|--5---Ring-----|
E|---------------|

   Wooooaaaaaaaaaahhhhhhhhh.....

Main Riff:  x2
e|------------------------------------------------------------------|
b|------------------------------------------------------------------|
g|(7.7)-(3.3)-------(5.5.0)--------(7.7)-(3.3)-------(5.5)(5.0.5.6)-|
d|-7-7---3-3--(3.3)--5-5-0-(5.5.3)--7-7---3-3--(3.3)--5-5--5-0-5-6--|
a|-5-5---1-1---3-3---3-3-0--5-5-3---5-5---1-1---3-3---3-3--3-0-3-4--|
E|-------------1-1----------3-3-1---------------1-1-----------------|

  Verse 1
e|---------------------------------| 
b|---------------------------------|   
g|---------------------------------| x2
d|--77777777777777777777777--------|   
a|--55555555555555555555555-3-55-3-|   
E|--------------------------1-33-1-|    

  Verse 2
e|--------------------| |-------------------------|
b|--------------------| |-------------------------|
g|--------------------| |-------------------------|
d|--------------------| |-3-5555555555555555555-\-|
a|--55-3-5--3-55-3-5--| |-3-5555555555555555555-\-|
E|--33-1-3--1-33-1-3--| |-1-3333333333333333333-\-|

  Bridge
e|----------------------------|
b|----------------------------|
g|----------------------------|
d|----------------------------|
a|--2-3-4-5-6-7-8-9-10-11-----|
E|--0-1-2-3-4-5-6-7-8--9------|

  Main Riff:  x2
e|------------------------------------------------------------------|
b|------------------------------------------------------------------|
g|(7.7)-(3.3)-------(5.5.0)--------(7.7)-(3.3)-------(5.5)(5.0.5.6)-|
d|-7-7---3-3--(3.3)--5-5-0-(5.5.3)--7-7---3-3--(3.3)--5-5--5-0-5-6--|
a|-5-5---1-1---3-3---3-3-0--5-5-3---5-5---1-1---3-3---3-3--3-0-3-4--|
E|-------------1-1----------3-3-1---------------1-1-----------------|

e|---------------------------------------| 
b|---------------------------------------|   
g|---------------------------------------|
d|--77777777777777777777777-10-12-12-10--|   
a|--55555555555555555555555--8-10-10--8--|   
E|---------------------------------------|    

e|-------------------------------------| 
b|-------------------------------------|   
g|-------------------------------------| x2
d|--7-7-7-7-7-77-7-7-7-7--10-12-12-10--|   
a|--5-5-5-5-5-55-5-5-5-5---8-10-10--8--|   
E|-------------------------------------| 
    x x x x x xx x x x x

 Verse 2
e|--------------------| |-------------------------|
b|--------------------| |-------------------------|
g|--------------------| |-------------------------|
d|--------------------| |-3-5555555555555555555-\-|
a|--55-3-5--3-55-3-5--| |-3-5555555555555555555-\-|
E|--33-1-3--1-33-1-3--| |-1-3333333333333333333-\-|

  Bridge
e|----------------------------|
b|----------------------------|
g|----------------------------|
d|----------------------------|
a|--2-3-4-5-6-7-8-9-10-11-----|
E|--0-1-2-3-4-5-6-7-8--9------|

  Main Riff:  x2
e|------------------------------------------------------------------|
b|------------------------------------------------------------------|
g|(7.7)-(3.3)-------(5.5.0)--------(7.7)-(3.3)-------(5.5)(5.0.5.6)-|
d|-7-7---3-3--(3.3)--5-5-0-(5.5.3)--7-7---3-3--(3.3)--5-5--5-0-5-6--|
a|-5-5---1-1---3-3---3-3-0--5-5-3---5-5---1-1---3-3---3-3--3-0-3-4--|
E|-------------1-1----------3-3-1---------------1-1-----------------|

e|---------------|
b|---------------|
g|--7---Let------|
d|--7----It------|
a|--5---Ring-----|
E|---------------|

 (BASS PLAYS)
G|------------------------------------------------------------------|
D|------------------------------------------------------------------|
A|-5-5---1-1---------3-3-0----------5-5---1-1---------3-3--3-0-3-4--|
E|-------------1-1----------3-3-1---------------1-1-----------------|

  GUITAR:
e|--------------------------------------------------------|
b|--------------------------------------------------------|
g|--------------------------------------------------------|
d|--555555555555555555555555555555555555555555------------|
a|--555555555555555555555555555555555555555555------------|
E|--333333333333333333333333333333333333333333------------|

  SOLO:  (PLAYED VERY FAST)
e|----------------------------------------------------|
b|----------------------------------------------------|
g|----------------------------------------------------|
d|--5h7p5h7p5h7p5h7p5h7-(REPEAT AS MANY TIMES NEEDED)-|
a|----------------------------------------------------|
E|----------------------------------------------------|

e|-----------------------------------------------------------------|
b|--------------------------(BEND ALL FRETS UP 1 WHOLE TONE)-------|
g|-----------------------------------------------------------------|
d|-11b13-11-9-9b11-10b12--12b-13b-14b-15b-16b-17b-18b-19b-20b-21b~~|
a|-----------------------------------------------------------------|
E|-----------------------------------------------------------------|

   Main Riff:  x3
e|------------------------------------------------------------------|
b|------------------------------------------------------------------|
g|(7.7)-(3.3)-------(5.5.0)--------(7.7)-(3.3)-------(5.5)(5.0.5.6)-|
d|-7-7---3-3--(3.3)--5-5-0-(5.5.3)--7-7---3-3--(3.3)--5-5--5-0-5-6--|
a|-5-5---1-1---3-3---3-3-0--5-5-3---5-5---1-1---3-3---3-3--3-0-3-4--|
E|-------------1-1----------3-3-1---------------1-1-----------------|

e|---------------------------|
b|---------------------------| 
g|(7.7)-(3.3)-------(5.5)\-2-| Shorten
d|-7-7---3-3--(3.3)--5-5-\-2-| last
a|-5-5---1-1---3-3---3-3-\-0-| E5 chord.
E|-------------1-1-----------|
   Get your hands off of my woman mother fu*ker!     


 
 
 
 
 Get your hands of my woman

b = bend
h = hammer on
p = pull off
x = dampen note
\ = Slide
() = Extra notes which can be played aswell if you want to.

Intro (bass Plays Main)

BASS PLAYS:
G|------------------------------------------------------------------|
D|------------------------------------------------------------------|
A|-5-5---1-1---------3-3-0----------5-5---1-1---------3-3--3-0-3-4--|
E|-------------1-1----------3-3-1---------------1-1-----------------|

GUITAR PLAYS:
e|---------------|
b|---------------|
g|--7---Let------|
d|--7----It------|
a|--5---Ring-----|
E|---------------|

   Wooooaaaaaaaaaahhhhhhhhh.....

Main Riff:  x2
e|------------------------------------------------------------------|
b|------------------------------------------------------------------|
g|(7.7)-(3.3)-------(5.5.0)--------(7.7)-(3.3)-------(5.5)(5.0.5.6)-|
d|-7-7---3-3--(3.3)--5-5-0-(5.5.3)--7-7---3-3--(3.3)--5-5--5-0-5-6--|
a|-5-5---1-1---3-3---3-3-0--5-5-3---5-5---1-1---3-3---3-3--3-0-3-4--|
E|-------------1-1----------3-3-1---------------1-1-----------------|

  Verse 1
e|---------------------------------| 
b|---------------------------------|   
g|---------------------------------| x2
d|--77777777777777777777777--------|   
a|--55555555555555555555555-3-55-3-|   
E|--------------------------1-33-1-|    

  Verse 2
e|--------------------| |-------------------------|
b|--------------------| |-------------------------|
g|--------------------| |-------------------------|
d|--------------------| |-3-5555555555555555555-\-|
a|--55-3-5--3-55-3-5--| |-3-5555555555555555555-\-|
E|--33-1-3--1-33-1-3--| |-1-3333333333333333333-\-|

  Bridge
e|----------------------------|
b|----------------------------|
g|----------------------------|
d|----------------------------|
a|--2-3-4-5-6-7-8-9-10-11-----|
E|--0-1-2-3-4-5-6-7-8--9------|

  Main Riff:  x2
e|------------------------------------------------------------------|
b|------------------------------------------------------------------|
g|(7.7)-(3.3)-------(5.5.0)--------(7.7)-(3.3)-------(5.5)(5.0.5.6)-|
d|-7-7---3-3--(3.3)--5-5-0-(5.5.3)--7-7---3-3--(3.3)--5-5--5-0-5-6--|
a|-5-5---1-1---3-3---3-3-0--5-5-3---5-5---1-1---3-3---3-3--3-0-3-4--|
E|-------------1-1----------3-3-1---------------1-1-----------------|

e|---------------------------------------| 
b|---------------------------------------|   
g|---------------------------------------|
d|--77777777777777777777777-10-12-12-10--|   
a|--55555555555555555555555--8-10-10--8--|   
E|---------------------------------------|    

e|-------------------------------------| 
b|-------------------------------------|   
g|-------------------------------------| x2
d|--7-7-7-7-7-77-7-7-7-7--10-12-12-10--|   
a|--5-5-5-5-5-55-5-5-5-5---8-10-10--8--|   
E|-------------------------------------| 
    x x x x x xx x x x x

 Verse 2
e|--------------------| |-------------------------|
b|--------------------| |-------------------------|
g|--------------------| |-------------------------|
d|--------------------| |-3-5555555555555555555-\-|
a|--55-3-5--3-55-3-5--| |-3-5555555555555555555-\-|
E|--33-1-3--1-33-1-3--| |-1-3333333333333333333-\-|

  Bridge
e|----------------------------|
b|----------------------------|
g|----------------------------|
d|----------------------------|
a|--2-3-4-5-6-7-8-9-10-11-----|
E|--0-1-2-3-4-5-6-7-8--9------|

  Main Riff:  x2
e|------------------------------------------------------------------|
b|------------------------------------------------------------------|
g|(7.7)-(3.3)-------(5.5.0)--------(7.7)-(3.3)-------(5.5)(5.0.5.6)-|
d|-7-7---3-3--(3.3)--5-5-0-(5.5.3)--7-7---3-3--(3.3)--5-5--5-0-5-6--|
a|-5-5---1-1---3-3---3-3-0--5-5-3---5-5---1-1---3-3---3-3--3-0-3-4--|
E|-------------1-1----------3-3-1---------------1-1-----------------|

e|---------------|
b|---------------|
g|--7---Let------|
d|--7----It------|
a|--5---Ring-----|
E|---------------|

 (BASS PLAYS)
G|------------------------------------------------------------------|
D|------------------------------------------------------------------|
A|-5-5---1-1---------3-3-0----------5-5---1-1---------3-3--3-0-3-4--|
E|-------------1-1----------3-3-1---------------1-1-----------------|

  GUITAR:
e|--------------------------------------------------------|
b|--------------------------------------------------------|
g|--------------------------------------------------------|
d|--555555555555555555555555555555555555555555------------|
a|--555555555555555555555555555555555555555555------------|
E|--333333333333333333333333333333333333333333------------|

  SOLO:  (PLAYED VERY FAST)
e|----------------------------------------------------|
b|----------------------------------------------------|
g|----------------------------------------------------|
d|--5h7p5h7p5h7p5h7p5h7-(REPEAT AS MANY TIMES NEEDED)-|
a|----------------------------------------------------|
E|----------------------------------------------------|

e|-----------------------------------------------------------------|
b|--------------------------(BEND ALL FRETS UP 1 WHOLE TONE)-------|
g|-----------------------------------------------------------------|
d|-11b13-11-9-9b11-10b12--12b-13b-14b-15b-16b-17b-18b-19b-20b-21b~~|
a|-----------------------------------------------------------------|
E|-----------------------------------------------------------------|

   Main Riff:  x3
e|------------------------------------------------------------------|
b|------------------------------------------------------------------|
g|(7.7)-(3.3)-------(5.5.0)--------(7.7)-(3.3)-------(5.5)(5.0.5.6)-|
d|-7-7---3-3--(3.3)--5-5-0-(5.5.3)--7-7---3-3--(3.3)--5-5--5-0-5-6--|
a|-5-5---1-1---3-3---3-3-0--5-5-3---5-5---1-1---3-3---3-3--3-0-3-4--|
E|-------------1-1----------3-3-1---------------1-1-----------------|

e|---------------------------|
b|---------------------------| 
g|(7.7)-(3.3)-------(5.5)\-2-| Shorten
d|-7-7---3-3--(3.3)--5-5-\-2-| last
a|-5-5---1-1---3-3---3-3-\-0-| E5 chord.
E|-------------1-1-----------|
        





Growing on me

Intro
|---------5----------5--------------------------------------0-----|
|-------------3----------3------3--------------3--------------3---|
|---2------------2----------2--------------2------2---------------|
|---0------------------------------------0--------------0---------|
|-------------------------------------4---------------------------|
|-----------------------------------------------------------------|

|---5----------5-------------------------------------0-------------------------------
|-------3----------3------3--------------3-------------------------------------------
|-----------2----------2--------------2------2-----------2--2---2--------------------
|-----------------------------------0--------------0-----2--2---2----5-4-0-5-4-0-0---
|-------------------------------4------------------------0--0---0--0-5-4-0-5-4-0-0---
|--------------------------------------------------------------------5-4-0-5-4-0-0---

Verse

|-------------------------------------------------------------|
|-------------------------------------------------------------|
|-------------------------------------------------------------|
|---0-0-7-7-9-9\-----0-0-7-7-9-9-7-7--5-5-5-4-0--0-0-7-7-9-9\-|
|---0-0-7-7-9-9\-----0-0-7-7-9-9-7-7--5-5-5-4-0--0-0-7-7-9-9\-|
|---0-0-7-7-9-9\-----0-0-7-7-9-9-7-7--5-5-5-4-0--0-0-7-7-9-9\-|

|------------------3-3-3-3--2-2---|
|------------------3-3-3-3--3-3---|
|---2--2-2--2-2-2--2-2-2-2--2-2---|
|---2--2-2--2-2-2--0-0-0-0--0-0---|
|---0--0-0--0-0-0-----------------|
|---------------------------------|

|-------------------------------------------------------------|
|-------------------------------------------------------------|
|-------------------------------------------------------------|
|---0-0-7-7-9-9\-----0-0-7-7-9-9-7-7--5-5-5-4-0--0-0-7-7-9-9\-|
|---0-0-7-7-9-9\-----0-0-7-7-9-9-7-7--5-5-5-4-0--0-0-7-7-9-9\-|
|---0-0-7-7-9-9\-----0-0-7-7-9-9-7-7--5-5-5-4-0--0-0-7-7-9-9\-|

|--------------------|
|--------------------|
|--2-2-2-2-----------|
|--2-2-2-2-----------|
|--0-0-0-0-----------|
|----------0-0-0-2-4-|

pre chorusIntro
|---------5----------5--------------------------------------0-----|
|-------------3----------3------3--------------3--------------3---|
|---2------------2----------2--------------2------2---------------|
|---0------------------------------------0--------------0---------|
|-------------------------------------4---------------------------|
|-----------------------------------------------------------------|

Verse

|-------------------------------------------------------------|
|-------------------------------------------------------------|
|-------------------------------------------------------------|
|---0-0-7-7-9-9\-----0-0-7-7-9-9-7-7--5-5-5-4-0--0-0-7-7-9-9\-|
|---0-0-7-7-9-9\-----0-0-7-7-9-9-7-7--5-5-5-4-0--0-0-7-7-9-9\-|
|---0-0-7-7-9-9\-----0-0-7-7-9-9-7-7--5-5-5-4-0--0-0-7-7-9-9\-|

|------------------3-3-3-3--2-2---|
|------------------3-3-3-3--3-3---|
|---2--2-2--2-2-2--2-2-2-2--2-2---|
|---2--2-2--2-2-2--0-0-0-0--0-0---|
|---0--0-0--0-0-0-----------------|
|---------------------------------|

|-------------------------------------------------------------|
|-------------------------------------------------------------|
|-------------------------------------------------------------|
|---0-0-7-7-9-9\-----0-0-7-7-9-9-7-7--5-5-5-4-0--0-0-7-7-9-9\-|
|---0-0-7-7-9-9\-----0-0-7-7-9-9-7-7--5-5-5-4-0--0-0-7-7-9-9\-|
|---0-0-7-7-9-9\-----0-0-7-7-9-9-7-7--5-5-5-4-0--0-0-7-7-9-9\-|

|--------------------|
|--------------------|
|--2-2-2-2-----------|
|--2-2-2-2-----------|
|--0-0-0-0-----------|
|----------0-0-0-2-4-|

pre chorusIntro
|---------5----------5--------------------------------------0-----|
|-------------3----------3------3--------------3--------------3---|
|---2------------2----------2--------------2------2---------------|
|---0------------------------------------0--------------0---------|
|-------------------------------------4---------------------------|
|-----------------------------------------------------------------|
chorus
|------------------------------------------------------------------------|
|------------------------------------------------------------------------|
|------------------------------------------------------------------------|
|--4-4-4-5-5-5-5-5-7-7-7-0-0-0-0-0------9-9-9-5-5-5-5-5-7-7-7-7-7-7-7-7--|
|--4-4-4-5-5-5-5-5-7-7-7-0-0-0-0-0------9-9-9-5-5-5-5-5-7-7-7-7-7-7-7-7--|
|--4-4-4-5-5-5-5-5-7-7-7-0-0-0-0-0------9-9-9-5-5-5-5-5-7-7-7-7-7-7-7-7--|
 
          
|------------------------------------------------------------------------|
|------------------------------------------------------------------------|
|------------------------------------------------------------------------|
|--4-4-4-5-5-5-5-5-7-7-7-0-0-0-0-0----------7----5-4-0-5-4-0-------------|
|--4-4-4-5-5-5-5-5-7-7-7-0-0-0-0-0----------7----5-4-0-5-4-0-------------|
|--4-4-4-5-5-5-5-5-7-7-7-0-0-0-0-0----------7----5-4-0-5-4-0-------------|
interlude
|--------------------------------------|
|-----8-8-7-7-5-7-7-7-8-8-7-7-5-7-7-7--|
|-----7-7-7-7-7-7-7-7-7-7-7-7-7-7-7-7--|
|-----7-7-7-7-7-7-7-7-7-7-7-7-7-7-7-7--|
|--------------------------------------|
|--------------------------------------|    

solo 1
|------------------------------------------------------------------------|
|---------------------------------- 7 11 8 7 8 9-----17b19 17b19 19p17---|
|---------------------7 7 9 7 9b11---------------------------------------|
|------------------------------------------------------------------------|
|---5-5-5~ 5 7 5 7 9-----------------------------------------------------|
|------------------------------------------------------------------------|

|--------------------17b19 17 15 14h15p14 12~~~--------------------------|
|15 17 15h17p15 15~------------------------------------------------------|
|------------------------------------------------------------------------|
|------------------------------------------------------------------------|
|------------------------------------------------------------------------|
|------------------------------------------------------------------------|
solo2
|------------------------------------------------------------------------|
|---------------------------------------------- 3h5p3h5 2h3p2h2----------|
|---------------------7p6 4 6 7b9 7b9 7b9 7 9 7--------------------------|
|------------------------------------------------------------------------|
|-5 5 7 5 7 5/7h9 9 9----------------------------------------------------|
|------------------------------------------------------------------------|

|------------------------------------------------------------------------|
|-----------------------------------15p14 12----15b17 15b17 15b17- ------|
|--4h6p4h6 2~--------------------------------14--------------------------|
|--------------12 12 14 12 14/16 16--------------------------------------|
|------------------------------------------------------------------------|
|------------------------------------------------------------------------|

|-------15-------15-------15---------------------------------------------|
|-17b19 ---17b19--- 17b19----17b19v-----15----15 15p12----17p12----15p12-|
|------------------------------------14----14--------- 14-------14-------|
|------------------------------------------------------------------------|
|------------------------------------------------------------------------|
|------------------------------------------------------------------------|

|------------------------------------------------------------------------|
|-----17p12----15p12----17p12-------15p12---15p12----15p12---------------|
|--14-------14-------14-------14-14------14-------14-------14-12-14-12---|
|------------------------------------------------------------------------|
|------------------------------------------------------------------------|
|------------------------------------------------------------------------|

|------------------------------------------------------------------------|
|------------------------------------------------------------------------|
|-11h12p11-9~-7-9-7-6-7-6-4-6-4-2-4-2-2~---------------------------------|
|------------------------------------------------------------------------|
|------------------------------------------------------------------------|
|------------------------------------------------------------------------|




Love is Only a Feeling


e|---------------------------------------------------------------------
B|---------------------------------------------------------------------
G|--14/h/16--16-16-16-16-16-14---14------------------------------------
D|---------------------------------------14--16--14-------17-----------
A|-----------------------------------17--------------17-14-------------
E|---------------------------------------------------------------------


e|--------17----------17-----17----------17--17------------------------
B|--17bu----17bu--17bu---17bu---17bu-17----15--14----------------------
G|-------------------------------------------------16--14--------------
D|---------------------------------------------------------------------
A|---------------------------------------------------------------------
E|---------------------------------------------------------------------

  

e|---------------------------------------------------------------------
B|--------------------------------------15--17--15-17bu19bd17-15-------
G|--14/h/16--16-16-16-16-16-14--14/h/16--------------------------16----
D|---------------------------------------------------------------------
A|---------------------------------------------------------------------
E|---------------------------------------------------------------------

e|-15-15-15--14-14-14--------------------------------------------------
B|---------------------17-17 17\15-15-15-15----17----------------------
G|------------------------------------------14-------------------------
D|---------------------------------------------------------------------
A|---------------------------------------------------------------------
E|---------------------------------------------------------------------



          G                        D                           A

e|--------3------------------------2---------------------------0-------
B|--------3------------------------3---------------------------2-------
G|--------0------------------------2---------------------------2-------
D|--------0------------------------0---------------------------2-------
A|--------2----------------------------------------------------0-------
E|--------3------------------------------------------------------------

 




 (A)        Em7                                D                A

e|----------3----------------------------------2----------------0------
B|----------3----------------------------------3----------------2------
G|----------0----------------------------------2----------------2------
D|----------2----------------------------------0----------------2------
A|----------2---------------------------------------------------0------
E|----------0----------------------------------------------------------

  

    Em7             D              Bm           G      D
[ Tab from: http://www.guitartabs.cc/tabs/d/darkness/permission_to_land_tab_ver_2.html ]
e|--3---------------2--------------2-----------------------------------
B|--3---------------3--------------3-----------------------------------
G|--0---------------2--------------4------------4------7---------------
D|--2---------------0--------------4------------5------7---------------
A|--2------------------------------2------------5------5---------------
E|--0-------------------------------------------3----------------------


     A      D  Bm   

e|---------------------------------------------------------------------
B|----------3--3-------------------------------------------------------
G|---2------2--4-------------------------------------------------------
D|---2------0--4-------------------------------------------------------
A|---0---------2-------------------------------------------------------
E|---------------------------------------------------------------------




Givin Up

(soz could only get main riff)
-4-4-2-4--4-4-4-2-4--4-4-4-2-4-2--------
-4-4-2-4--4-4-4-2-4--4-4-4-2-4-2--------
-4-4-3-4--4-4-4-3-4--4-4-4-3-4-3--------
-4-4-4-4--4-4-4-4-4--4-4-4-4-4-4--------
-2-2-4-2--2-2-2-4-3--2-2-2-4-2-4--------
-----2----------2----------2---2-2-4-6-7-

-4-4-2-4--4-4-4-2-4--4-4-4-2-4-2--------
-4-4-2-4--4-4-4-2-4--4-4-4-2-4-2--------
-4-4-3-4--4-4-4-3-4--4-4-4-3-4-3--------
-4-4-4-4--4-4-4-4-4--4-4-4-4-4-4--------
-2-2-4-2--2-2-2-4-3--2-2-2-4-2-4--------
-----2----------2----------2---2-2-4-6-7-

-4-4-2-4--4-4-4-2-4--4-4-4-2-4-2--------
-4-4-2-4--4-4-4-2-4--4-4-4-2-4-2--------
-4-4-3-4--4-4-4-3-4--4-4-4-3-4-3--------
-4-4-4-4--4-4-4-4-4--4-4-4-4-4-4--------
-2-2-4-2--2-2-2-4-3--2-2-2-4-2-4--------
-----2----------2----------2---2-2-4-6-7-






Stuck in a Rut

Intro:
|--------------------------------------------------|
|--------------------------------------------------|
|-2-2-2-x-2--x-2-2-2-x-2--x-2-2-2-x-2--x-2-2-2-x-2-|
|-2-2-2-x-2--x-2-2-2-x-2--x-2-2-2-x-2--x-2-2-2-x-2-|
|-0-0-0-x-0--x-0-0-0-x-0--x-0-0-0-x-0--x-0-0-0-x-0-|
|--------------------------------------------------|

Verse 1:
|------------------------------------------------2--3-|
|------------------------------------------------3--3-|
|-2-2-2-x-2--x-2-2-2-x-2--x-2-2-2-x-2--x-2-2-2-x-2--0-|
|-2-2-2-x-2--x-2-2-2-x-2--x-2-2-2-x-2--x-2-2-2-x-0----|
|-0-0-0-x-0--x-0-0-0-x-0--x-0-0-0-x-0--x-0-0-0-x----x-|
|---------------------------------------------------3-|

Pre-Chorus:
|--------------------|
|--------------------|
|-7-7----------5-7-7-|
|-7-7-4-5-6-7--5-7-7-|
|-5-5-4-5-6-7--3-5-5-|
|-----2-3-4-5--------|

Chorus:
  A   G   D   G   A   G    D G
|-----3---2---3-------3----2-3-|
|-2---3---3---3---2---3----3-3-|
|-2---0---2---0---2---0----2-0-|
|-2-------0-------2--------0---|
|-0---x-------x---0----------x-|
|-----3-------3-------3------3-|

|----------------------|
|----------------------|
|-----5------------7---|
|-7-5-5-5--7-7-7-5-5-5-|
|-7-5-3-5--7-7-7-5-5-5-|
|-5-3---3--5-5-5-3---3-|







Friday Night

Key:

\    slide down
/    slide up
~~   vibrato
h    hammer on
p    pull off
b    bend
p/m  palm muted


Intro

                                        |-p/m--(slowly releasing)-| 
E--0----0-----------------------0-0--------------------------------------
B--0-------4p2p0-2------0-------------4--4---4-4-4-4-4-4-4-4-4-4-4-------
G--1---------------2----2p1-2p1----------4---4-4-4-4-4-4-4-4-4-4-4-------
D--2--------------------2-----------2----4---4-4-4-4-4-4-4-4-4-4-4-------
A--2--------------------0----------------2---2-2-2-2-2-2-2-2-2-2-2-------
E--0---------------------------------------------------------------------


Verse 1

E---------------------------------------5-0----------2---------------------
B------4----4--4--------------------0-------0---0----2---------------------
G------4----4--4-------4------4--4--6---------6------2------------4-----4--
D------4----4--4----6--6---6--6--6--7-------------6--4---4-2--4h6---4h6-4--
A---0--2----2--2----6------6--------7--------------------------------------
E--------------------------------------------------------------------------


E-------------------------------5-0----------2------------2----
B---4--4--------------------0-------0---0----2--2-4---5--------
G---4--4-------4------4--4--6---------6------2------2---2---2--
D---4--4----6--6---6--6--6--7-------------6--4-----------------
A---2--2----6------6--------7----------------------------------
E--------------------------------------------------------------


Chorus
           
E----------------------4---4--5---4-5-----4---4--5---4-5-----0---0--0---0-0--|
B---9----10---9-10-----5---5--5---5-5-----5---5--5---5-5-----7---7--7---7-7--| repeat
G---9----9----9-9------4---4--4---4-4-----4---4--4---4-4-----8---8--8---8-8--| once
D---9----9----9-9------6---6--6---6-6-----x---x--x---x-x-----9---9--9---9-9--|
A---7----7----7-7------4---4--4---4-4-----0---0--0---0-0---------------------|
E----------------------------------------------------------------------------|

(Flatten your middle finger for the 5 on the high-e of the C#min7 chord)


Verse 2

E-----------------------------------5-0----------2---------------------
B---4----4--4----5---5-4--4-5---0-------0---0----2---------------------
G---4----4--4----4---4-4--4-4---6---------6------2------------4-----4--
D---4----4--4----6---6-6--6-6---7-------------6--4---4-2--4h6---4h6-4--
A---2----2--2----6---6-6--6-6---7--------------------------------------
E----------------------------------------------------------------------


E------------------------------5-0----------2------------2--------
B---4--4----5---5-4--4-5---0-------0---0----2--2-4---5------------
G---4--4----4---4-4--4-4---6---------6------2------2---2---2------
D---4--4----6---6-6--6-6---7-------------6--4---------------------
A---2--2----6---6-6--6-6---7--------------------------------------
E-----------------------------------------------------------------


Play Chorus and slide off from end chord to:


|--MIDDLE SECTION--| (2 guitars)


Guitar 1
                                                      (1)
E-------0----------------------0-0-------------2-------|----0------------
B--0--0----4p2p0-2-------------------4-------4---4-----|--0----4p2p0-2---
G--1---------------2---2/1-2p1-------------2-------2---|---------------2-
D--2-------------------------------2-----4-----------4-|2----------------
A--2-----------------------------------2---------------|-----------------
E--0---------------------------------------------------|-----------------

                                  (2) 
E----------0-0-------------2-------|----0---------------------0-0--------
B----------------4-------4---4-----|--0----4p2p0-2-----------------/7~~--
G--2/1-2p1-------------2-------2---|---------------2--2/1-2p1------------
D--------------2-----4-----------4-|2------------------------------------
A------------------2---------------|-------------------------------------
E----------------------------------|-------------------------------------

Play through once to (2) then repeat the section between (1) and (2), then 
carry on to the end.


Guitar 2 - Starts at the repeat of (1) to (2) on Guitar 1.
                                                   |-p/m-|
E------------------------------------------------------------------------
B-------/9~~-----------------------------9-9------------------------/9---
G-------------11p9\8--9-----------------------11~~-----------------------
D--6~~-------------------11~~--11p9-11p9------------(9)(9)--6b7b6~~------
A------------------------------------------------------------------------
E------------------------------------------------------------------------


E-----------------------------------------
B----------------------------9-9--/12~~---
G--11p9\8--9------------------------------
D------------11~~--11p9-11p9--------------
A-----------------------------------------
E-----------------------------------------






Love On The Rocks With No Ice

h = hammer
p = pull off
/ = slide up
\ = slide down
^ = bend
r = release bend
~ = let note ring

Intro

E------------------------------------------------------------------------------------
B-----------------------------------------0------------------------------------------
G---------0--------------------------------------------------------------------------
D----------------------------------0h2h4-----4p2p0--0--2-----------------------------
A--0h2h4-----4p2p0--0--2----------------------------------0--------------------------
E-------------------------0-----0----------------------------------------------------


E-------------------------------------0------------0---------------------------------
B----------------------------------------0------------0------------------------------
G------------0------------------------------3--3---------3--3^-----------------------
D------------------------------------------------------------------------------------
A--0--0h2h4-----4p2p0--0--2----------------------------------------------------------
E----------------------------0-----0-------------------------------------------------


1st Riff (x2)

E------------------------------------------------------------------------------------
B--------3---------------------------------------------------------------------------
G--------2---------------------------------------------------------------------------
D--------0-----------------2--2-----2------------------------------------------------
A--2--2-----2-----8--5-----0--0--0--0-----8--5---------------------------------------
E--0--0-----0-----6--3-----------3--------6--3---------------------------------------


--1st Verse starts--

E------------------------------------------------------------------------------------
B---------------------------------------------3----------3-3-------------------------
G-------------2-----2--------------------2/4--------2/4------------------------------
D--2~----2/4-----------4p2p0h2-----2-------------------------------------------------
A--2~------------------------------2-------------------------------------------------
E--0~---------------------------0--0-------------------------------------------------


1st Riff (x2)


2nd Riff (before chorus)

E----------------------------------------------------------------------3--------3----
B-------------------------------5--------5--------5--------------------3--------3----
G------(x13)--------------------4--------4--------4--------------------0--------0----
D--7777777777777--7^8r7p5-------2--------2--------2----------------------------------
A--5555555555555---------------------------------------------------------------------
E--------------------------0-0------0-0------0-0------0--2--3-3---3-3------3-3-------


E-------3--------3---------------------------7----------9----------9-----------12----
B-------3--------3-------------------------------------------------------------------
G-------0--------0-----7--7--7-7--2~----5/7--------7/9--------7/9--------9/12--------
D----------------------7--7--7-7--2~-------------------------------------------------
A----------------------5--5--5-5--0~-------------------------------------------------
E--3-3------3-3----------------------------------------------------------------------


Chorus Riff (x3)

E-------------------------|-----------------------------------------------------------
B--3----------------------|-----------------------------------------------------------
G--2----------------------|-----------------------------------------------------------
D--0--2-------------------|-----------------------------------------------------------
A-----0---2---2--2--2-----|-----------------------------------------------------------
E---------0---0--3^-0-----|--3--2--3--5-----------------------------------------------


Chorus Riff (x3)

E-------------------------|-----------------------------------------------------------
B--3----------------------|-----------------------------------------------------------
G--2----------------------|-----------------------------------------------------------
D--0--2-------------------|-----------------------------------------------------------
A-----0---2---2--2--2-----|-----------------------------------------------------------
E---------0---0--3^-0-----|--3--2--0--3--2--0--5~-------------------------------------


--1st Solo--

E-------------------------------------------------------------3--2^--------3--2^-----
B---0-----------------------------------------------0--3--5^---------3------------3--
G--^3r2~----4p2p0-----------------------------0--2-----------------------------------
D------------------4p2p0--2~-----------0h2h4-----------------------------------------
A-------------------------------0h2h4------------------------------------------------
E------------------------------------------------------------------------------------


--2nd Verse Starts--


3rd Riff

E------------------------------------------------------------------------------------
B------------------------------------------------------------------------------------
G------------------------------------------------------------------------------------
D--9--9--7--9--------------2--2-----2------------------------------------------------
A--7--7--5--7-----8--5-----0--0-----0-----8--5---------------------------------------
E-----------------6--3-----------3^-------6--3---------------------------------------


--2nd Solo--

E---7-------12-----------------------------------------------------------------------
B--10^~---------15--12--15--12--15^17--15^17~-----15^17--15^17--15^17r15p12--15p12~--
G------------------------------------------------------------------------------------
D------------------------------------------------------------------------------------
A------------------------------------------------------------------------------------
E------------------------------------------------------------------------------------


E------15^17--15-----15p12------12---------------------------------------------------
B--15-----------------------15------15^17--15^17-------------------------------------
G----------------------------------------------------9--------11--------12-----------
D-------------------------------------------------------9--9------9--9------9--9-----
A------------------------------------------------------------------------------------
E------------------------------------------------------------------------------------


E------------------------------------------------------------------------------------
B---------15--------------------------------------10------8--------------------------
G--14^16------^16r14p12---14--14--12h14--11---------------------12--11p9-------------
D--------------------------------------------/11------\9------------------11---------
A------------------------------------------------------------------------------------
E------------------------------------------------------------------------------------


E------------------------------------------------------------------------------------
B------------------------------------------------------------------------------------
G--12--11p9--------------------------------------------------------------------------
D------------11-----11p9------11p9---------9-----------------------------------------
A------------------------12p9------12p9-12---10----10-12-10--------------------------
E-----------------------------------------------12----------12-----------------------


E------------------------------------------------------------------------------------
B----------------------------------------------------------------------------15--15^-
G---------14-------------------------------------------14^16--^16r14p12--------------
D--14^15------^15r14p12---14^15r14p12------12---12h14--------------------14----------
A--------------------------------------14--------------------------------------------
E------------------------------------------------------------------------------------


E---------------12--15--12--12-----12--15--17^19--^19r17p15p12--12--12-12--15--12----
B--15^17--^17~-----------------------------------------------------------------------
G------------------------------------------------------------------------------------
D------------------------------------------------------------------------------------
A------------------------------------------------------------------------------------
E------------------------------------------------------------------------------------


E--12--12----------------------------------------------------------------------------
B-----------------15----------------------------------------------15-15------15-15---
G----------14^16~-----^16r14p12--14^16r14p12----12-----12----12--^16-14-----^16-14---
D--------------------------------------------14-----------14-------------------------
A------------------------------------------------------------------------------------
E------------------------------------------------------------------------------------


E------------------------------------------------------------------------------------
B---15-15--15-15-15------------------------------------------------------------------
G--^16-14-^16-14-14^16r14------------------------------------------------------------
D------------------------------------------------------------------------------------
A------------------------------------------------------------------------------------
E------------------------------------------------------------------------------------






Holding my Own

Intro (Clean, With Delay)

e|--------------0----------|--------------0----------|
b|--------3----------2-----|--------3----------3-----|
g|-----2-----2----------3--|-----2-----2----------2--|
d|--0----------------------|-------------------------|
a|-------------------------|--2----------------------|
D|-------------------------|-------------------------|
                               
|--------------0----------||--------------0--2--0----|
|--------3----------3-----||-----------3-------------|
|-----2-----2----------2--||--0-----0----------------|
|-------------------------||-----0-------------------|
|--0----------------------||-------------------------|
|-------------------------||-------------------------|
____________________________________________________________________


Solo 1 (Distortion):

|-----------------------------|-------------------------------------|
|-----------------------------|-----10-10----10----10-12^(14) ~~~ --|
|--9^(11)--9^(11)^(9)p7-7 ~~~ |-/11-------11----11------------------|
|-----------------------------|-------------------------------------|
|-----------------------------|-------------------------------------|
|-----------------------------|-------------------------------------|


|-10h12-10--9--9---------------------|------------------------------|
|-----------------12--12--10--10--8--|------------------------------|
|------------------------------------|-9^(11)-9^(11)-(11)^9p7-9 ~~~ |
|------------------------------------|------------------------------|
|------------------------------------|------------------------------|
|------------------------------------|------------------------------|

|-------------------------------------------------------------------|
|---------------------(7)-10p7------7-------------------------------|
|-9^(11)^(9)p7h9-9^(11)-------9^(11)--9p7-9^(11)^(9)p7----7--9 ~~~ ^|
|-------------------------------------------------------9-----------|
|-------------------------------------------------------------------|
|-------------------------------------------------------------------|

|-------------------|--------|
|-------------------|--------|
|-----------7 ~~~~~~|~~~~~~\-|
|--9--7--9----------|--------|
|-------------------|--------|
|-------------------|--------|
____________________________________________________________________


Verse (Clean):

|--------------0----------|--------------0----------|
|--------3----------2-----|--------3----------3-----|
|-----2-----2----------3--|-----2-----2----------2--|
|--0----------------------|-------------------------|
|-------------------------|--2----------------------|
|-------------------------|-------------------------|
                               
                            1,3
|--------------0----------||--------------0--2--0----|
|--------3----------3-----||-----------3-----------3-|
|-----2-----2----------2--||--0-----0----------------|
|-------------------------||-----0-------------------|
|--0----------------------||-------------------------|
|-------------------------||-------------------------|

  2,                        4,
|--------------0--2--0----|--------------3--2--0----|
|-----------3-------------|-----------3-------------|
|--0-----0----------------|--0-----0----------------|
|-----0-------------------|-----0-------------------|
|-------------------------|-------------------------|
|-------------------------|-------------------------|


|-------------------|------------------|----------------|--0------|
|-------2--3----2---|--------2-3-2-----|-------0------0-|--3------|
|-----2-----------2-|------2-------2---|-----2------2---|--0------|
|-------------------|----2-----------2-|--(2)-----------|--0------|
|--0----------------|--0---------------|-2--------------|---------|
|-------------------|------------------|----------------|---------|
____________________________________________________________________

Chorus (Distortion):
                               1,2 (Fill)        3 (2nd Time)
|---------------------------||-----------------|----------------|
|---------------------------||-----------------|----------------|
|---------------------------||-----------------|----------------|
|--9----7----5----5----7--\-||--0----7----5----|--5-------------|
|--9----7----5----5----7--\-||--0----7----5----|--5-------------|
|--9----7----5----5----7--\-||--0----7----5----|--5-------------|

Chorus Fill:

|--10----------------------------|
|--10----10--7 ~~~ --------------|
|-------------------7--7 ~~~ ----|
|--------------------------------|
|--------------------------------|
|--------------------------------|
____________________________________________________________________


Pre - 2nd Verse:

|--0----0----0--0----0--|--0----0----0----|
|--3----3----2--3----3--|--2----2----3----|
|--2----2----2--2----2--|--2----2----0----| Back To Verse, 
|--0----0----0--0----0--|--0----0----0----| then Chorus (x3)
|-----------------------|-----------------|
|-----------------------|-----------------|

____________________________________________________________________

After 3rd Chorus, As Bass Goes Down By Step:

|-------------|---------------|-------------
|--------0----|--------0------|--------0----
|------2------|------2--------|------2------
|----2--------|----2----------|----2--------- Etc...
|--0----------|--0------------|--0-----------
|-------------|---------------|-------------
____________________________________________________________________

Pre - Solo 2 (With Delay):

|--3------3-3-3/5--5------5-4-3-3------3-3-3-3/5--5----------5-5-5-|
|--3------3-3-3/5--5------5-4-3-3------3-3-3-3/5--5----------5-5-5-|
|------------------------------------------------------------------|
|------------------------------------------------------------------|
|------------------------------------------------------------------|
|------------------------------------------------------------------|
____________________________________________________________________

Solo 2 (Distortion, Pose):

|--------------------------------------|----------------------------|
|--------------------------------------|----------------------------|
|---------7--9^(slowww bend...)(11) ~~~|-9^(11)-9^(11)-9^(11)--9 ~~~|
|-5/7--9-------------------------------|----------------------------|
|--------------------------------------|----------------------------|
|--------------------------------------|----------------------------|


|-----------------------------------------------------|
|------------(7)h8--7---------------------------------|
|--9 ~~~ --7-----------9--7--9^(11)^(9)p7-------------|
|------------------------------------------9--7 ~~~ --|
|-----------------------------------------------------|
|-----------------------------------------------------|


|------------------------|--12^(14)--12^(14)--12^(14)--12 ~~~ --12\|
|------------------------|-----------------------------------------|
|---------------10-12 ~~~|-----------------------------------------|
|------7-9-/-11----------|-----------------------------------------|
|--7-9-------------------|-----------------------------------------|
|------------------------|-----------------------------------------|


|-12h14^(15)^(14)p12------------------------------------------------|
|-------------------15p12-------------------------------------------|
|------------------------14---12--11--------------------------------|
|-------------------------------------14p12------14 ~~~ --12--11 ~~~|
|--------------------------------------------14---------------------|
|-------------------------------------------------------------------|

To End Of Verse, Drum Fill, Then Corus
____________________________________________________________________

Solo 3 (Distortion):

|------------------------------7------------------------------------|
|----------------------------7--10p7-------7-10p7------------------.|
|9^(11)-9^(11)^(9)p7---9^(11)--------9^(11)-------9^(11)^(9)p7--9~~7|
|--------------------9-----------------------------------------9----|
|-------------------------------------------------------------------|
|-------------------------------------------------------------------|


|------------------------------|------------------------------------|
|-----10-10----10-10--10h12 ~~~|------------------------------------|
|-/11-------11-----------------|--9^(11)^(9)p7-----7h9 ~~~ ---------|
|------------------------------|----------------7-------------------|
|------------------------------|------------------------------------|
|------------------------------|------------------------------------|


|-------------------------------------------------------------------|
|-------------------------------------------------------------------|
|--9^(11)^(9)p7------/12 ~~~ --11 ~~~(11)h12p11--9 ~~~ ----9\-------|
|----------------9-7------------------------------------------------|
|-------------------------------------------------------------------|
|-------------------------------------------------------------------|


|-/12^(14)^(12)^(14) ~~~ --10--12^(14)^(12)p10---------------------|
|------------------------12-------------------12-13^(15)^(13)p10---|
|------------------------------------------------------------------|
|------------------------------------------------------------------|
|------------------------------------------------------------------|
|------------------------------------------------------------------|


|------------------------|------------------------------------------|
|------------------------|-------------------15-14-15-12-15---------|
|-12--11 ~~(11)h12--9--7-|-------------11-12----------------14-14 ~~|
|------------------------|-12-11-12-14------------------------------|
|------------------------|------------------------------------------|
|------------------------|------------------------------------------|
                          |__Palm Mute (?)__|

|-17^(19)--17 ~~~ --15-14-15--15p14p12-14-12--------------------|
|--------------------------------------------15-12-15 ~~~~~~ ---|
|---------------------------------------------------------------|
|---------------------------------------------------------------|
|---------------------------------------------------------------|
|---------------------------------------------------------------|
____________________________________________________________________

Final Chords (Clean):

|--0--------------------|--0---------------------------------------|
|--3--------------------|--3---------------------------------------|
|--2--------------------|--2----------\x\x\x\ Pick Scrape \x\x\x\--|
|--2--------------------|--0---------------------------------------|
|--2--------------------|------------------------------------------|
|-----------------------|------------------------------------------|
Comments