Darkness - One Way Ticket Chords & Tabs

 

One Way Ticket Chords & Tabs

Darkness Chords & Tabs

Version: 2 Type: Tab

One Way Ticket Tab

New single 'One Way Ticket'

Intro/ Verse

e-------------------------------|
G-------------------------------|
B--444----666---------4---22----|
D--444----666-----2---4---22----|
A--222----444-----2---2---00----|
E-----------------0-------------|


Pre Chorus

e------------------------|
B------------------------|
G--4444--------2---------|
D--4444--------2----2----|
A--2222--------0----2----|
E----------4--------0----|

X2

Then
[ Tab from: http://www.guitartabs.cc/tabs/d/darkness/one_way_ticket_tab_ver_2.html ]
e------------------------|
B------------------------|
G---4444-----------------|
D---4444----2------------|
A---2222----0---6---4----|
E---------------4---2----|

Chorus

1-------------------------------------------------|
2-------------------------------------------------|
3-----------2---------444-------------22--44-6-4--|
4-----------2---------444----2--4-6---22--44-6-4--|
5-----------0---------222----2--4-6---00--22-4-2--|
6--0--2--4------4--0---------0--2-4---------------|


Solo Rhythm

1----------------------------------|
2----------------------------------|
3--666-----------------44---5------|
4--666---666---444--2--44---5------|
5--444---666---444--2--22---3------|
6--------444---222--0--------------|