Darkness - Love Is Only A Feeling Chords & Tabs

 

Love Is Only A Feeling Chords & Tabs

Darkness Chords & Tabs

Version: 6 Type: Tab 0 ratings
1 star 2 stars 3 stars 4 stars 5 stars
comments

Love Is Only A Feeling Tab

   
ARTIST:The Darkness
TITLE:Love Is Only A Feeling

by Declan McErlane

This really hurts your fingers when u play it all the time. Too much bending is bad
for the heart! All the same its still one kick ass mother f***er of a tune. Feel free
to contact me if anything is wrong with this tab.

Legend:
S=Semibreve=4 beats
DM=Dotted Minim=3 beats
M=Minim=2 beats
DC=Dotted Crotchet=1.5 beats
C=Crotchet=1 beat
Q=Quaver=0.5 beats
SQ=Semi-quaver
{-3-}=Triplet=Each note is a third of 1 beat
s=slide
h=hammer-on
p=pull off
b=bend to...
r=release to...

INTRO SOLO:

   C  C  Q Q  C    C C C DC Q  {-3-}  Q Q  C M
e-------------------------------------------------|
B--12-12-121212s101010----------------------------|
G-------------------------9-11-9h11p9-9------12---|
D----------------------12---------------12-9------|
A-------------------------------------------------|
E-------------------------------------------------|
    DC   Q    DC   Q   C    Q   C    Q   C   DC Q  Q Q Q Q DC Q  C  C
e--------17-------17-------17-------17---------------19--19-------------|
B--17b19----19r17----17b19----17r19----17b19-17-17-17--15--14-14-12-10--|
G-----------------------------------------------------------------------|
D-----------------------------------------------------------------------|
A-----------------------------------------------------------------------|
E-----------------------------------------------------------------------|
   C  C  Q Q   C  Q   C    Q DC Q    C   Q  Q  M
e-------------------------10-12-10-12b14-12-10------|
B--12-12-121212s101010s12----------------------12---|
G---------------------------------------------------|
D---------------------------------------------------|
A---------------------------------------------------|
E---------------------------------------------------|
   Q Q   C  Q   C  Q   C  Q   C   C  M
e--191919s171717s151515s141414s12-12-12--|
B--202020s191919s171717s151515s14-14-10--|
G----------------------------------------|
D----------------------------------------|
A----------------------------------------|
E----------------------------------------|

INTRO ACCOMPANIMENT:Repeat x2
   M   M  DC   Q M   M   M  DC   Q M
e-------------------------------------|
B-------------------------------------|
G------7---2-------------7---2---4-2--|
D--5---7---2---4s5---5---7---2---4-2--|
A--5---5---0---4s5---5---5---0---2-0--|
E--3-----------2s3---3----------------|

VERSE 1: Acoustic, Repeat x2
   C DC  Q C C C C  C C QQ  C  C  C DC  Q C C C C  C QQ C C C  C QQ
e-----3--3-2-3-2-0-------------3-----3--3-2-3-2-0--------------------|
B-----3--3-3-3-3-3--2-2-22-----3-----3--3-3-3-3-3--2-22-2-3-2--2-22--|
G-----0--0-2-2-2-2--2-2-22-----0-----0--0-2-2-2-2--2-22-2-2-2--2-22--|
D-----0--0-0-0-0-0--2-2-22-----0-----0--0-0-0-0-0--2-22-2-2-2--2-22--|
A--2--2--2----------0-0-00--2--2--2--2--2----------0-00-0-0-0--0-00--|
E--3--3--3------------------3--3--3--3--3----------------------------|

PRE-CHORUS: Heavy Distortion
   Q Q Q Q Q Q Q Q   Q Q Q Q Q Q Q Q   Q Q Q Q Q Q Q Q
e-------------------------------------------------------|
B-------------------------------------------------------|
G--------------------2-2-2-2-2-2-2-2--------------------|
D--2-2-2-2-2-2-2-2---2-2-2-2-2-2-2-2---2-2-2-2-2-2-2-2--|
A--2-2-2-2-2-2-2-2---0-0-0-0-0-0-0-0---2-2-2-2-2-2-2-2--|
E--0-0-0-0-0-0-0-0---------------------0-0-0-0-0-0-0-0--|
[ Tab from: http://www.guitartabs.cc/tabs/d/darkness/love_is_only_a_feeling_tab_ver_6.html ]
CHORUS PART 1:
   Q Q C   Q Q C    Q Q C  Q Q C   Q Q C   Q Q C   Q Q C   Q Q C
e----10------10------10------10------10------10------10------10----|
B--12--12--12--12--12--12--12--12--12--12--12--12--12--12--12--12--|
G------------------------------------------------------------------|
D------------------------------------------------------------------|
A------------------------------------------------------------------|
E------------------------------------------------------------------|
  Q Q Q Q Q Q Q Q Q Q Q Q Q Q Q Q Q Q Q Q Q Q Q Q Q Q Q Q Q Q Q Q M
e-101010101010101010101010101010101010101010101010101010101010101010--|
B---------------------------------------------------------------------|
G---------------------------------------------------------------------|
D---------------------------------------------------------------------|
A---------------------------------------------------------------------|
E---------------------------------------------------------------------|

CHORUS PART 2:
   M   M   M   M   M   M   M   M   M   M   M   M   S
e-----------------------------------------------------|
B-----------------------------------------------------|
G--4-------7---2---4-------7---2---4-------7---2---5--|
D--4---5---7---2---4---5---7---2---4---5---7---2---5--|
A--2---5---5---0---2---5---5---0---2---5---5---0---3--|
E------3---------------3---------------3--------------|

2ND SOLO:
   C  C  Q Q   C  Q   C    Q DC Q    C   Q  Q  M
e-------------------------10-12-10-12b14-12-10------|
B--12-12-121212s101010s12----------------------12---|
G---------------------------------------------------|
D---------------------------------------------------|
A---------------------------------------------------|
E---------------------------------------------------|
   Q Q   C  Q   C  Q   C  Q   C   C  C  C  M  S
e--191919s171717s151515s141414s12-12-12-14-15-17--|
B--202020s191919s171717s151515s14-14-10-12-14-15--|
G-------------------------------------------------|
D-------------------------------------------------|
A-------------------------------------------------|
E-------------------------------------------------|

CHORUS 2ND TIME:
    Q Q C   Q Q C    Q Q C  Q Q C   Q Q C   Q Q C   Q Q C   Q Q C
e----10------10------10------10------10------10------10------10----|
B--12--12--12--12--12--12--12--12--12--12--12--12--12--12--12--12--|
G------------------------------------------------------------------|
D------------------------------------------------------------------|
A------------------------------------------------------------------|
E------------------------------------------------------------------|
  Q Q Q Q Q Q Q Q Q Q Q Q Q Q Q Q Q Q Q Q Q Q Q Q Q Q Q Q Q Q Q Q M
e-101010101010101010101010101010101010101010101010101010101010101010--|
B---------------------------------------------------------------------|
G---------------------------------------------------------------------|
D---------------------------------------------------------------------|
A---------------------------------------------------------------------|
E---------------------------------------------------------------------|
   DM      {--3--}    C   C  M     M        C   M        C  M
e---------------------------------------------------------------------|
B--12------12-12-12-12p10-10-10----10-----10h12-10----12p10-10--------|
G---------------------------------------------------------------------|
D---------------------------------------------------------------------|
A---------------------------------------------------------------------|
E---------------------------------------------------------------------|
     C   C    C    C   C   C    C   DC Q
e------------------------------------------|
B--10h12-12-12h14-14-14h15-15-15h17-17-15--|
G------------------------------------------|
D------------------------------------------|
A------------------------------------------|
E------------------------------------------|

3RD SOLO:
    DC  Q  C       DC Q  C       Q  Q    Q  Q   Q    C
e-------17------------17------------17------17-----------|
B--17b19--19r17--17b19--19r17--17b19---17b19---17b19-17--|
G--------------------------------------------------------|
D--------------------------------------------------------|
A--------------------------------------------------------|
E--------------------------------------------------------|
   Q    Q    Q    C   Q Q Q Q C  Q Q Q Q C  Q Q Q Q   Q   Q     Q  Q Q Q
e---------------------------1214-1415171919-1917192122r2122r2122r2119--19--|
B--17-17s15-15s14-14--121415-----------------------------------------22----|
G--------------------------------------------------------------------------|
D--------------------------------------------------------------------------|
A--------------------------------------------------------------------------|
E--------------------------------------------------------------------------|

This is all i've got done so far. I'll bring the rest l8er. Smell ya l8er!
Comments