Darkness - Love Is Only A Feeling Chords & Tabs

 

Love Is Only A Feeling Chords & Tabs

Darkness Chords & Tabs

Version: 2 Type: Bass Tab 0 ratings
1 star 2 stars 3 stars 4 stars 5 stars
comments

Love Is Only A Feeling Bass Tab

 "love is only a feeling" by The Darkness (bass tab)

  Intro                                  X2
  G-----------------------------------------
  D-----------------------------------------
  A-----5-5---0--0----------5-5---0--0-2-0--
  E-3--------------2-3--3------------------- 

  Verse 1 (guitar chords then:)
  G--------------------------------------------
  D--------------------------------------------
  A-----5-5-5---5--0-----------5-5-5--5-0------
  E-3----------------3-3-3--3-------------0-5--

  Pre-chorus
  G----------------------------------------------------
  D-------------------------------------------0-0-0-0--
  A-----------------0-0-0-0-0-0-0-0-0------------------
  E-0-0-0-0-0-0-0-0-------------------0-0-0-0----------

  Chorus
  G---------------------------------------------------------------
  D---------------------------------------------------------------
  A-2---------5---------2---------5---------2---------5-----------
  E-----3-3-------5-5-------3-3-------5-0-------3-3-------5-5--3--

  Pre-Verse
  G------------------------------------------
  D------------------------------------------
  A-----5-5---0--0-----------5-5---0--0-2-0--
  E-3--------------2-3---3-------------------

  Verse 2
  G----------------------------------------
  D----------------------------------------
  A-----5-5-5---5--0-----------5-5-5--5-0--
  E-3----------------3-3-3--3--------------
[ Tab from: http://www.guitartabs.cc/tabs/d/darkness/love_is_only_a_feeling_btab_ver_2.html ]
  repeat pre-chorus
  Chorus 2
  G------------------------------------------------------------
  D------------------------------------------------------------
  A-2---------5---------2---------5---------2---------5--------
  E-----3-3-------5-5-------3-3-------5-0-------3-3-------5-5--

  Pre-solo
  G------------------------------------------------------------
  D------------------------------------------------------------
  A------------------------------------------------------------
  E-3-3-3-3-3-3-3-3-5-5-5-5-5-5-5-5-7-7-7-7-7-7-7-7-5-5-5-5-5--

  Guitar Solo
  G-------------------------------------------
  D-------------------------------------------
  A-2---------5---------2---------5-----------
  E-----3-3-------5-5-------3-3-------5--0-0--

  Chorus 3
  G----------------------------------------------------------------
  D------------------------------------------------------0--0------
  A-2-------5---------2---------5-5----------2----------------0-0--
  E-----3-------5-5-------3-3---------5--0-------2-3-3-------------

  Guitar solo 2
  G------------------------------------------------------------------------------------------------------------
  D-------------0----------------------0---0-------------------0---0-------------------0---0-------------------
  A-2----------------------2-----------------0-0---2-----------------0-0---2-----------------0-0---2-----------
  E-----2-3-3-------5--0-------2-3-3-------------------2-3-3-------------------2-3-3-------------------2-3-3---

  G--------------------------------------
  D-0---0--------------------------------
  A-------0-0---2-----------5--------2---
  E-----------------2-3-3-------5--0-----
Comments