Darkness - Is It Just Me Chords & Tabs

 

Is It Just Me Chords & Tabs

Darkness Chords & Tabs

Version: 4 Type: Tab

Is It Just Me Tab

   
This is My first Tab, hope you think its good

Grant

/ = slide (while picking)
s = slide
h = hammer-on
p = pull-off
h = hold/bend/ring

MAIN RIFF:
G-----------------------------------------------------|
D---------------------------------0---1---0---1---0---|
A-----------0---1---0---1---0--1-1-1-1-1-1-1-1-1-1-1--|
E--12s1--1-1-1-1-1-1-1-1-1-1-1------------------------| x2

VERSE:
Pt 1 G-----------------------------------------------|
     D---------------------------0---1---0---1---0---|
     A-----0---1---0---1---0--1-1-1-1-1-1-1-1-1-1-1--|
     E--1-1-1-1-1-1-1-1-1-1-1------------------------| x2

Pt 2 G-----0---1---0---1---0-------------------------|
     D--1-1-1-1-1-1-1-1-1-1-1------------------------|
     A---------------------------0---1---0---1---0---|
     E------------------------1-1-1-1-1-1-1-1-1-1-1--|

PRE CHORUS:
G-----------------------------------------------|
D-----------------------------------------------|
A-----------------------------------------------|
E--3-3-1-3-1-3-1-5-5-3-5-3-5-3-6s1---------s12s-|

CHORUS:
G-----------------------------------------|
D-----------------------------------------|
A--3-3h5-5--1-1------3-3h5-5--1p0-1p0-1p0-|
E---------------1-1--------------1---1----|

G-----------------------0---1---0---1--------------------3p1-----------|
D--------------------1-1-1-1-1-1-1-1-1-0---------------------3-2-1-----|
A--3-3h5-5--1-1--------------------------1-1-1-1-1-1-1-1-----------3-2-|
E---------------1-1----------------------------------------------------|
[ Tab from: http://www.guitartabs.cc/tabs/d/darkness/is_it_just_me_tab_ver_4.html ]
G-----------------------------------------------|
D---------------------------0---1---0---1---0---|
A-----0---1---0---1---0--1-1-1-1-1-1-1-1-1-1-1--|
E--1-1-1-1-1-1-1-1-1-1-1------------------------|

VERSE variation between pt 1 & pt 2:
G-----------|
D--------0--|
A--1--3-----|
E-----------|

PRE CHORUS 2
CHORUS 2

"I'm outside Big Ben, It's driving me round the bend..":
G-----------------------------------------------|
D------------------------0-0-0-3-1-1-1-1-1-1s12-|
A--------------1-1-3-3-3------------------------|
E--3-3-3-5-5-5----------------------------------|

SOLO:
G-----------------------------------------------------------------|
D------------2--------------2-------------------------------------|
A---------------------------------1-1-1-1-1-1-1-1-----------------|
E--0-0-3-0-0--0-0-0-0-3-0-0---0-0-----------------3-3-3-3-3-3-1-1-| x4

G-----0---1---0---1---0-----2---3---2---3---2--|
D--1-1-1-1-1-1-1-1-1-1-1-3-3-3-3-3-3-3-3-3-3-3-|
A----------------------------------------------|
E----------------------------------------------|

G-----------------------------------------------|
D-----------------------------------------------|
A-----------------------------------------------|
E--3-3-1-3-1-3-1-5-5-3-5-3-5-3-6s1---------s12s-|

CHORUS:
G------------------|
D------------------|
A--1p0---1p0---1p0-|
E------1-----1-----|

G-----------------------------------------|
D-----------------------------------------|
A--3-3h5-5--1-1------3-3h5-5--1p0-1p0-1p0-|
E---------------1-1--------------1---1----|

G-----------------------0---1---0---1----------------------------------|
D--------------------1-1-1-1-1-1-1-1-1-0-------------------------------|
A--3-3h5-5--1-1--------------------------1-1-1-1-1-1-1-1-1p0---1p0-----|
E---------------1-1------------------------------------------1-----1-1-|