Darkness - Is It Just Me Chords & Tabs

 

Is It Just Me Chords & Tabs

Darkness Chords & Tabs

Version: 1 Type: Bass Tab

Is It Just Me Bass Tab

The Darkness

Is It Just Me?

Bass Tab

>> There are some parts that arnt quite right - sorry!! this is my first tab :)

Standard Tuning (EADG)

Key:

\ = Slide down to 0 from that fret.
/ = Slid up to that fret from 0.


Intro:
----------------------------------------------------------------------|
----------------------------------------0-----1-----0-----1-----0-----|
--------0-----1-----0-----1-----0---1-1---1-1---1-1---1-1---1-1---1---|
--8\1-1---1-1---1-1---1-1---1-1---1-----------------------------------|   x2

Verse:
----------------------------------------------------------------------|
----------------------------------------0-----1-----0-----1-----0-----|
--------0-----1-----0-----1-----0---1-1---1-1---1-1---1-1---1-1---1---|
----1-1---1-1---1-1---1-1---1-1---1-----------------------------------|   x2


--------0-----1-----0-----1-----0-------------------------------------|
----1-1---1-1---1-1---1-1---1-1---1-----------------------------------|
----------------------------------------0-----1-----0-----1-----0-----|
------------------------------------1-1---1-1---1-1---1-1---1-1---1---|

Bridge:
------------------------------------|
-----------------------7\-----------|
--55-3-5-3-5--77-5-7-5--------------|
------------------------------------|
[ Tab from: http://www.guitartabs.cc/tabs/d/darkness/is_it_just_me_btab.html ]
Chorus:
--------------------------------------------------------------0-----1-----0-----1-----0----|
----------------------------------------------------------1-1---1-1---1-1---1-1---1-1---1--|
--33-55---11-----33-55---1-0---1-0---1-0----33-55---11-------------------------------------|
-------------11--------------1-----1-----1-------------11----------------------------------|

Verse

Bridge

Chorus

Solo:
---------------------------------------------------------------------|
---------------------------------------------------------------------|
--5-5-5-5-5-5-5-5-5-5-5-5-5-5-5-5-1-1-1-1-1-1-1-1--------------------|
--------------------------------------------------3-3-3-3-3-3-3-3----|   x4

--------0-----1-----0-----1-----0-------------------------------------|
----1-1---1-1---1-1---1-1---1-1---1-----------------------------------|
----------------------------------------0-----1-----0-----1-----0-----|
------------------------------------1-1---1-1---1-1---1-1---1-1---1---|

Final Chorus:
------------------------------------|
-----------------------7\/15--------|
--55-3-5-3-5--77-5-7-5--------------|
------------------------------------|

-----------------------------------------------------------------------------------------------------|
-----------------------------------------------------------------------------------------------------|
-------------------------1-0---1-0---1-0----33-55---11------33-55---11-----33-55---1-0---1-0---1-0---|
-----------------------------1-----1-----1-------------11--------------11--------------1-----1-----1-|

--------0-----1-----0-----1---------------------|
----1-1---1-1---1-1---1-1---0-------------------|
------------------------------1-1-0---1----1----|
------------------------------------1----1---1--|