Darkness - I Believe In A Thing Called Love Chords & Tabs

 

I Believe In A Thing Called Love Chords & Tabs

Darkness Chords & Tabs

Version: 7 Type: Tab 0 ratings
1 star 2 stars 3 stars 4 stars 5 stars
comments

I Believe In A Thing Called Love Tab

   
tuning low to high - e, a, d, g, b, e

intro (guitar 1 then guitar 2 second time) and verse (guitar 2)

|-----------------------------------------------|
|-----------------------------------------------|
|-----2-2-4-4-x--4-4-2-----4-4-x-2-2------------|
|-4-x-2-2-4-4-x--4-4-2-2-x-4-4-x-2-2------------| x3
|-4-x-0-0-2-2-x--2-2-0-2-x-2-2-x-0-0----0-2-4---|
|-2-x------------------0-x-----------4--------0-|

|----------------------------------------------|
|----------------------------------------------|
|------2-4-4-x--4-4-2-----4-4-x-2-2------------|
|-4-x--2-4-4-x--4-4-2-2-x-4-4-x-2-2------------| x1
|-4-x--0-2-2-x--2-2-0-2-x-2-2-x-0-0----0-------|
|-2-x-----------------0-x-----------4----4-2-0-|

bridge
guitar 2
|-00--------------00--------------00------------------------|
|-00--------------00--------------00------------------------|
|-11--------------11--------------11----23344444444444444---|
|-224-44444444444-224-44444444444-224-4223344444444444444---|
|-224-44444444444-224-44444444444-224-4201122222222222222---|
|-002-22222222222-002-22222222222-002-20-----------------/\-|

chorus
guitar 2
|----------------------------|      |-------------|
|----------------------------|      |-------------|
|-------2-------------4----4-|      |-6-6-6-4-6-7-|
|-------2------4------4----4-|  x3  |-6-6-6-4-6-7-|  x1
|-------0------4----0-2--4-2-|      |-4-4-4-2-4-5-|
|-0-2-4----4-0-2--4----------|      |-4-4-4-2-4-5-|

solo 1 backing - guitar 2 - same as intro/verse

solo 1
guitar 1
|--------------------------------16(16.5)--------------------------------|
|----------17-------17--------------------17-------------------15(15.5)\-|
|-16(16.5)---(16.5)----(16.5)-16------------16---------------------------|
|---------------------------------------------18(18.5)--18-14------------|
|------------------------------------------------------------------------|
|------------------------------------------------------------------------|

verse 2
guitar 2
|-0-------------------------|-0----------------------|
|-0-------------------------|-0----------------------|
|-1--4-4--2-2---------------|-1--4-4--2-2------------|
|-2--4-4--2-2------------4--|-2--4-4--2-2------------|
|-2--2-2--0-0----0-2-4---4--|-2--2-2--0-0----0-------|
|-0-----------4--------0-2--|-0-----------4----4-2-0-|

repeat bridge and chorus

solo 2 backing - guitar 1 - same as intro/verse -

solo 2
guitar 2
|-0-0-0-0-----7---7-------------0-0-------------|
|----5-5--7(8)-(8)-(8)7-5-7-5-5-4-2-0-----------|
|--------------------------------------1-2-4-4/\-|
|------------------------------------------------|
|------------------------------------------------|
|------------------------------------------------|

|-----------------------------------------------------9------9------|
|--------------------------0-------2-4-5/10-10--10-9----9-9----9-9--|
|------------------------9---1-2-4-------12-12--12-11-----11-----11-|
|6-6-6-4-2---2/4-4/6-4-2--------------------------------------------|
|----------4--------------------------------------------------------|
|-------------------------------------------------------------------|

   p p   p p   p p
|-9^7^0-9^7^0------------------------------|
|-------------9^7^0------------------------|
|-------------------11-9----9-11-9---------|
|------------------------11--------11-9-11-|
|------------------------------------------|
|------------------------------------------|
[ Tab from: http://www.guitartabs.cc/tabs/d/darkness/i_believe_in_a_thing_called_love_tab_ver_7.html ]
|--------------------------------------------------|
|----9----9-9----9----9-------9-9-9-9-9-9/10/12-12-|
|----9----9-9----9----9-------9-9-9-9-9-9/11/13-13-|
|----9----9-9----9----9-------9-9-9-9-9------------|
|-11---11-----11---11---11-11----------------------|
|--------------------------------------------------|

repeat bridge

1st part solo 3 backing - guitar 2
|----------------------------|     
|----------------------------|     
|-------2-------------4----4-|     
|-------2------4------4----4-|  x2
|-------0------4----0-2--4-2-|     
|-0-2-4----4-0-2--4----------|    

first part solo 3 - guitar 1
                   p  p            
|---------------------------------------------------------------------------|
|-15(15.5)15(16)-15^14^12-14-12---------------------------------------------|
|-------------------------------14(15)-14-12-14*(15)-14-12-14-14*(15)-14-12-|
|---------------------------------------------------------------------------|
|---------------------------------------------------------------------------|
|---------------------------------------------------------------------------|
             
              p     p  p        p
|------------------------------------------------------|
|------------------------------------------------------|
|-14-14(15)-14^12----------12--------------------------|
|-----------------14^12^14----14^12\10-----------------|
|--------------------------------------12-10-9---------|
|----------------------------------------------10-9-7\-|


2nd part solo 3 backing - guitar 2

   p h p h p h p h p h p h p h p h p h p
|-----------------------------------------|
|-5^0^5^0^5^0^5^0^5^0^5^0^5^0^5^0^5^0^5^0-|
|-----------------------------------------|   listen for amount of 
|-----------------------------------------|   times played
|-----------------------------------------|
|-----------------------------------------|

2nd part of solo 3 - guitar 1
   p h p h p h  p h p h p h  p h  p h  p h  p h  p h  p h  p h  p h  p h  p
|-5^0^7^0^9^0^10^0^7^0^9^0^10^0^12^0^14^0^12^0^14^0^16^0^17^0^16^0^17^0^19-|
|--------------------------------------------------------------------------|
|--------------------------------------------------------------------------|
|--------------------------------------------------------------------------|
|--------------------------------------------------------------------------|
|--------------------------------------------------------------------------|
 p h  p h  p h  p h  p h  
|-0^21^0^17^0^19^0^21^0^22-22(24)-|
|---------------------------------|
|---------------------------------|
|---------------------------------|
|---------------------------------|
|---------------------------------|

then play chorus both guitars

end solo - guitar 1
           p  p h  p  p h  p  p h  p p h p p
|-----------------------------------------------------|
|-15(16)-15^14^0^14^12^0^12^10^0^10^9^0^9^7^0-15*(16)-|
|-----------------------------------------------------|
|-----------------------------------------------------|
|-----------------------------------------------------|
|-----------------------------------------------------|

end on 
|---|
|---|
|---|
|-2-|
|-2-|
|-0-|


notes with * = when picked catch string with thumb immeadietly after
               to create a squeal sound
h=hammer on
p=pull off
/=slide up
\=slide down
notes with () = bend previously played string to the point in ()

anythin u wanna say about this tab or anythin else email me nameandnumberhere@hotmail.com
Comments