Darkness - I Believe In A Thing Called Love Chords & Tabs

 

I Believe In A Thing Called Love Chords & Tabs

Darkness Chords & Tabs

Version: 5 Type: Tab 0 ratings
1 star 2 stars 3 stars 4 stars 5 stars
comments

I Believe In A Thing Called Love Tab

   
The Darkness - I Believe In A Thing Called Love
===============================================

Tabbed by Mike Cannon (smilock@hotmail.com)

Tab Explanation
===============

s	Slide
h	Hammer-on
p	Pull-off
T	Tap
B	Bend the note to the fret after the B
R	Release back to the originally bent note
A.h.	Artificial Harmonic
H	Natural Harmonic
m	Palm Muted
//	Trem Pick (Pick as fast as possible)
x	Dead Note
\1/	Trem Bar

==============================

Intro
=====

Gtr. 1				     A.h     A.h-|
e|-----------------------------------------------|
B|-----------------------------------------------|
G|-----------------------------------------------|
D|---------------------------------------------5-|
A|-------------------------------------------4---|
E|-2~-x-5-5s7-7~-x-7-7-0-0~-7-7~-5-5~-4~-5-7-----|

Verse 1
=======
Gtr. 1 & 2
e|-----------------------------------------|
B|-----------------------------------------|
G|-----------------9-9~-8-8~-6-6-----------|
D|-4~-7-7-9-9~-9-9-9-9~-9-9~-7-7-----------|
A|-4~-7-7-9-9~-9-9-7-7~-9-9~-7-7-------4---|
E|-2~-5-5-7-7~-7-7-0-0~-7-7~-5-5-4-5-7---0-|


   Gtr. 1
e|-----------------------------------------|
B|-----------------------------------------|
G|-----------------9-9~-8-8~-6-6-----------|
D|-4~-7-7-9-9~-9-9-9-9~-9-9~-7-7-----------|
A|-4~-7-7-9-9~-9-9-7-7~-9-9~-7-7-----------|
E|-2~-5-5-7-7~-7-7-0-0~-7-7~-5-5-4-5-4-2-0-|
 |					   |
 | Gtr. 2				   | Play this on last line
e|-----------------------------------------|
B|-----------------------------------------|
G|-----------------9-9~-8-8~-6-6---6-------|
D|-4~-7-7-9-9~-9-9-9-9~-9-9~-7-7---7-------|
A|-4~-7-7-9-9~-9-9-7-7~-9-9~-7-7---7-------|
E|-2~-5-5-7-7~-7-7-0-0~-7-7~-5-5---5-------|


Can't explain all the feelings that you're making me feel
My heart's in overdrive and you're behind the steering wheel

Bridge
======


Gtr. 1 & 2
	 m m m m m m m m m m m	
e|-----------------------------|
B|-0~--------------------------|
G|-1~-2~-----------------------|
D|-2~-4~-4-4-4-4-4-4-4-4-4-4-4-|
A|-2~-4~-4-4-4-4-4-4-4-4-4-4-4-|
E|-0~-2~-2-2-2-2-2-2-2-2-2-2-2-|


Gtr. 1 & 2
			m m m m m m m m m
e|-------0--------------------------------|
B|-0~-------------------------------------|
G|-1~-2~----------------------------------|
D|-2~-4~---7~-8~-9~-9-9-9-9-9-9-9-9-9-9-9-| Play on last line
A|-2~-4~---7~-8~-9~-9-9-9-9-9-9-9-9-9-9-9-|
E|-0~-2~---5~-6~-7~-7-7-7-7-7-7-7-7-7-7-7-|

Touching you, touching me
Touching you, God you're touching me


Chorus
======

   Gtr. 1
e|-----------------------------|
B|-----------------------------|
G|-----------------------------|
D|-----------------------------|
A|---------------------2~-4-2~-|
E|-0-2-4-5~-5-0-2~-2-5---------|
 |			       |
 |  Gtr. 2                     |
e|-----------------------------|
B|-------2~--------------------|
G|-1~----2~-----2~-----4~-6-4~-|
D|-2~----2~-----4~-----4~-6-4~-|
A|-2~----0~-----4~-----2~-4-2~-|
E|-0~-----------2~-------------|

   Gtr. 1
e|--------------------|
B|--------------------|
G|--------------------|
D|-6-6-6-4s6-7~-------|
A|-4-4-4-2s4-5~-5---5-|
E|--------------------|
 |                    |
 |  Gtr. 2	      | Play on last line ("Ooh!")
e|--------------------|
B|--------------7-x-7-|
G|-6-6-6-----7~-7-x-7-|
D|-6-6-6-4s6-7~-7-x-7-|
A|-4-4-4-2s4-5~-5-x-5-|
E|--------------------|



I believe in a thing called love
Just listen to the rhythm of my heart
There's a chance we could make it now
We'll be rocking 'til the sun goes down
I believe in a thing called love
Ooh!

Solo 1
======

Gtr. 1
						    .h.
  Hold Bend---------|			         \5____/
e|-12~---12----12-----------16b17r16--------------------|
B|-12b14----14----14r12-12~----------17-----------------|
G|--------------------------------------13b14r13--------|
D|-----------------------------------------------14~-14-|
A|------------------------------------------------------|
E|------------------------------------------------------|

Gtr. 3
e|--------------------------19b20r19--------------------|
B|-----------------------------------21-----------------|
G|--------------------------------------16b17r16--------|
D|-----------------------------------------------18~----|
A|------------------------------------------------------|
E|------------------------------------------------------|

Verse 2
=======

Gtr. 1 & 2
e|-----------------------------------------|
B|-----------------------------------------|
G|-------------------9~-8-8~-6-6-----------|
D|-4~----------------9~-9-9~-7-7-----------|
A|-4~----------------7~-9-9~-7-7-------4---|
E|-2~----------------0~-7-7~-5-5-4-5-7---0-|

[ Tab from: http://www.guitartabs.cc/tabs/d/darkness/i_believe_in_a_thing_called_love_tab_ver_5.html ]
   Gtr. 1
e|-----------------------------------------|
B|-----------------------------------------|
G|-------------------9~-8-8~-6-6-----------|
D|-4~----------------9~-9-9~-7-7-----------|
A|-4~----------------7~-9-9~-7-7-----------|
E|-2~----------------0~-7-7~-5-5-4-5-4-2-0-|
 |					   |
 | Gtr. 2				   |
e|-----------------------------------------|
B|-----------------------------------------|
G|-------------------9~-8-8~-6-6~--6~------|
D|-4~----------------9~-9-9~-7-7~--7~------|
A|-4~----------------7~-9-9~-7-7~--7~------|
E|-2~----------------0~-7-7~-5-5~--5~------|

I wanna kiss you every minute, every hour, every day
You got me in a spin but everything is A.OK!

Bridge
======

Chorus
======


Solo 2
======

Gtr. 1 (played behind solo)

e|-----------------------------------------|
B|-----------------------------------------|
G|-----------------9-9~-8-8~-6-6-----------|
D|-4~-x-7-9-9~-x-9-9-9~-9-9~-7-7-----------| Play x 3
A|-4~-x-7-9-9~-x-9-7-7~-9-9~-7-7-------4---|
E|-2~-x-5-7-7~-x-7-0-0~-7-7~-5-5-4-5-7---0-|

e|-----------------------------------------|
B|-----------------------------------------|
G|-----------------9-9~-8-8~-6-6-----------| 
D|-4~-x-7-9-9~-x-9-9-9~-9-9~-7-7-----------|
A|-4~-x-7-9-9~-x-9-7-7~-9-9~-7-7-----------|
E|-2~-x-5-7-7~-x-7-0-0~-7-7~-5-5-4-5-4-2-0-|

Gtr. 2
	   Hold Bend--------|
e|--------------------------------------------|
B|---------------12----12---------------------|
G|-9-9-9-9-11b12----12----12r11-9-11-9-8------|
D|---------------------------------------11-9-|
A|--------------------------------------------|
E|--------------------------------------------|

e|------------------------------------------------|
B|------------------------------------------5-----|
G|--------------------------------------------4---|
D|----------9~-6-6-6-4--------------------------6-|
A|-11b12r11------------7-4-7s9-9-9-11s9s7-7-------|
E|------------------------------------------------|

e|--------------------------------------------|
B|--------10-10-10-10-------14----------14----|
G|--------------------11s13----13-11s13----13-|
D|-6s7s9~-------------------------------------|
A|--------------------------------------------|
E|--------------------------------------------|

e|----------------------------------------------|
B|-14p12----14p12-------------------------------|
G|-------13-------13-11-9----9-9~-11-9----9-----|
D|------------------------11-----------11---11~-|
A|----------------------------------------------|
E|----------------------------------------------|

e|---------------------4---4---4-5-7-|
B|-------------5---5-5---5---5-5-7-9-|
G|-----------6---6-4-4---------------|
D|-6-6-6-6-4-------------------------|
A|-----------------------------------|
E|-----------------------------------|

Bridge
======

Chorus (Chords played by synth)
======
Last line of chorus ("Ooh") has last line played
by guitar 1 

Solo 3
======

Gtr. 4 (clean electric)

e|-0-----0-----0---------|
B|---0-----0-----0-------|
G|-----4-----4-----4s6s4-|
D|-----------------2s4s2-|
A|-----------------------|
E|-----------------------|


Gtr. 3 & 5 (one guitar per string)

e|-14b16r14b16~-|
B|-17b19r17b19~-|
G|--------------|
D|--------------|
A|--------------|
E|--------------|

Gtr. 2

e|-----------------------------|
B|-------2~--------------------|
G|-1~----2~-----2~-----4~-6-4~-|
D|-2~----2~-----4~-----4~-6-4~-|
A|-2~----0~-----4~-----2~-4-2~-|
E|-0~-----------2~-------------|

Gtr. 1

e|--------------12p10-----------------------------|
B|-16b17r16b17~-------12p11-12p11-----------------|
G|--------------------------------14p12-14b16-12~-|
D|------------------------------------------------|
A|------------------------------------------------|
E|------------------------------------------------|

			      A.H--|
e|-------------------------------------------|
B|-------------------------------------------|
G|-14----------11b12----------11b12----------|
D|----14p12h14-------14p12h14-------14p12h14-|
A|-------------------------------------------|
E|-------------------------------------------|

e|--------------------------------------|
B|--------------------------------------|
G|-11b12--------------------------------|
D|-------14p12----------12--------------|
A|-------------14p12-14-----------------|
E|-------------------------12p10h12s7s5-|

e|-4p0-0-5p0-0-7p0-0-9p0-0-7p0-9p0-11p0-0-9p0-0-11p0-12p0-|
B|--------------------------------------------------------|
G|--------------------------------------------------------|
D|--------------------------------------------------------|
A|--------------------------------------------------------|
E|--------------------------------------------------------|
		     
e|-15p0-12p0-15p0-16p0-17p0-18p0-17p0-18p0-22b24~-|
B|------------------------------------------------|
G|------------------------------------------------|
D|------------------------------------------------|
A|------------------------------------------------|
E|------------------------------------------------|

Outro
=====

Main chorus riff and chords (Gtr. 1 & 2) is played 4 times
Ends on an E 

I think thats about right :) enjoy...
Comments