Darkness - I Believe In A Thing Called Love Chords & Tabs

 

I Believe In A Thing Called Love Chords & Tabs

Darkness Chords & Tabs

Version: 13 Type: Tab 0 ratings
1 star 2 stars 3 stars 4 stars 5 stars
comments

I Believe In A Thing Called Love Tab

e|-------------------------------------------------------------------------|
b|----------------12--12--12-----------------------------------------------|
g|-9-9-9-9-9-11-13--13--13---9-8-6-4---------------------------------------|
d|-----------------------------------6-7-9-9-------------------------------|
a|-------------------------------------------11-11-11-9-7-9-9-9-9-11-9-7-7-|
e|-------------------------------------------------------------------------|
[ Tab from: http://www.guitartabs.cc/tabs/d/darkness/i_believe_in_a_thing_called_love_tab_ver_13.html ]
e|-----------------------------14----14^---14^------------------------------|
b|-8------------14-14-14-14-14~---14^---14^---14^-12-14---------------------|
g|--8---------------------------------------------------12-14-------14--14--|
d|----6-6-7-9-9-----------------------------------------------14-16---16--16|
a|--------------------------------------------------------------------------|
e|--------------------------------------------------------------------------|

e|--------------------------------------------------------------------------|
b|------------8-8-8-8--8-8--8-8-8------11--18-18-19-21-21-------------------|
g|-14-14------9-9-9-9--9-9--9-9-9----11-------------------------------------|
d|-------16---8-8-8-8--8-8--8-8-8--11---------------------------------------|
a|--------------------------------------------------------------------------|
e|--------------------------------------------------------------------------|

~=vibrato
^=bend              Feel free to make any changes.

submitted by Brad-Larry McArdle
Comments