Darkness - Hazel Eyes Chords & Tabs

 

Hazel Eyes Chords & Tabs

Darkness Chords & Tabs

Version: 1 Type: Bass Tab

Hazel Eyes Bass Tab

   
The Darkness
Hazel Eyes
Tabbed by Guy Bellamy

Great song, just listen to it, it's pretty easy.

0:47
G ----
D ----
A ----
E 7*/0    *Let ring before sliding


1:14
Chorus
"Girl with the hazel eyes..."
G ------------|
D ------------|
A ----------2-|
E 2222222222- x4

Second verse
"The elements had taken their toll on her"
G --------------------------|
D --------------------------|
A ------------11111-4-2222--|
E 22222-6-4444--------------| x2

"And she said hoots, I cannae get..."
No bass
[ Tab from: http://www.guitartabs.cc/tabs/d/darkness/hazel_eyes_btab.html ]
Chorus
G ------------|
D ------------|
A ----------2-|
E 2222222222- x2

G -------------------------|
D -------------------------|
A ------------11111-22222--|
E 22222-44444--------------| x2


"I shall travel with thee..."
No bass

Slight pause here... continue at 2:31

Chorus
G --------------|
D --------------|
A ------------2-|
E 5/2222222222- (sounds right when i slide from here)

G ------------|
D ------------|
A ----------2-|
E 2222222222-

G -------------------------|
D -------------------------|
A ------------11111-22222--|
E 22222-44444--------------| x3

"I shall travel with thee..."
No bass

The End