Darkness - Growing On Me Chords & Tabs

 

Growing On Me Chords & Tabs

Darkness Chords & Tabs

Version: 2 Type: Bass Tab 0 ratings
1 star 2 stars 3 stars 4 stars 5 stars
comments

Growing On Me Bass Tab

The Darkness-Growing On Me
Tabbed by Sam King

Intro
G-----------------|--------------|-----------|------------|-------------|
D--5-5-5--4-2-0---|--------------|-----------|------------|-------------|
A-----------------|-0-0--5-7--5--|-----------|------------|-------------|
D-----------------|--------------|--7~~~~~~~-|--5-4-0-5-4-|0~~~~~~--12\-|

Verse 1
G-------------|-----------------|------------|-----------------|
D-------------|-----------------|------------|-----------------|
A-------------|-----------------|------------|-----------------|
D--0-0-7-7-9-9|-9-9-9-9-9-9-9-9-|-0-0-7-7-9-9|--7--7--5-5-4-0--|
               

G-------------|-----------------|-----------------|-----------------|
D-------------|-----------------|-----------------|-----------------|
A-------------|-----------------|-----------------|-----------------|
D--0-0-7-7-9-9|-9-9-9-9-9-9-9-7-|-7-7-7-7-7-7-7-7-|--5-4-0--5-4-0-0-|


G-------------|-----------------|------------|-----------------|
D-------------|-----------------|------------|-----------------|
A-------------|-----------------|------------|-----------------|
D--0-0-7-7-9-9|-9-9-9-9-9-9-9-9-|-0-0-7-7-9-9|--7--7--5-5-4-0--|


G-------------|-----------------|-------------|--------------|
D-------------|-----------------|-------------|--------------|
A-------------|-----------------|-------------|--------------|
D--0-0-7-7-9-9|-9-9-9-9-9-9-9-9-|-7--7--7-7-7-|--2-2-x--2-2--|


Pre-chorus
G-----------------|--------------|-----------------|--------------|
D--5-5-5--4-2-0---|--------------|--5-5-5--4-2-0---|--------------|
A-----------------|-0-0--5-7--5--|-----------------|-0-0--5-7--5--|
D-----------------|--------------|-----------------|--------------|


G-----------------|--------------|-------------|--------------|
D--5-5-5--4-2-0---|--------------|-------------|--------------|
A-----------------|-0-0--5-7--5--|-------------|--------------|
D-----------------|--------------|-7--7--7--7--|-7-7-7-7------|


Chorus
G------------------|-----------------|-----------------|-----------------|
D------------------|-----------------|-----------------|-----------------|
A------------------|-------5-5-5-5-5-|-----------------|-----------------|
D--4-4-4-5-5-5-5-5-|-7-7-7-----------|-9-9-9-5-5-5-5-5-|-7-7-7-0-0-0-0-2-|


G------------------|-----------------|-----------------|-----------------|
D------------------|-----------------|-----------------|-----------------|
A------------------|-------5-5-5-5-5-|-----------------|-----------------|
D--4-4-4-5-5-5-5-5-|-7-7-7-----------|-7-7-7-7-7-7-7-7-|--5-4-0-5-4-0-0--|


2nd Verse
G-------------|-----------------|------------|-----------------|
D-------------|-----------------|------------|-----------------|
A-------------|-----------------|------------|-----------------|
D--0-0-7-7-9-9|-----------------|-0-0-7-7-9-9|--7--7--5-5-4-0--|


G-------------|-----------------|-------------|--------------|
D-------------|-----------------|-------------|--------------|
A-------------|-----------------|-------------|--------------|
D--0-0-7-7-9-9|-9-9-9-9-9-9-9-9-|-7--7--7-7-7-|--2-2-x--2-2--|


Pre-Chorus
G-----------------|--------------|-----------------|--------------|
D--5-5-5--4-2-0---|--------------|--5-5-5--4-2-0---|--------------|
A-----------------|-0-0--5-7--5--|-----------------|-0-0--5-7--5--|
D-----------------|--------------|-----------------|--------------|


G-----------------|--------------|-------------|--------------|
D--5-5-5--4-2-0---|--------------|-------------|--------------|
A-----------------|-0-0--5-7--5--|-------------|--------------|
D-----------------|--------------|-7--7--7--7--|-7-7-7-7------|

[ Tab from: http://www.guitartabs.cc/tabs/d/darkness/growing_on_me_btab_ver_2.html ]
Chorus
G------------------|-----------------|-----------------|-----------------|
D------------------|-----------------|-----------------|-----------------|
A------------------|-------5-5-5-5-5-|-----------------|-----------------|
D--4-4-4-5-5-5-5-5-|-7-7-7-----------|-9-9-9-5-5-5-5-5-|-7-7-7-0-0-0-0-2-|


G------------------|-----------------|-----------------|-----------------|
D------------------|-----------------|-----------------|-----------------|
A------------------|-------5-5-5-5-5-|-----------------|-----------------|
D--4-4-4-5-5-5-5-5-|-7-7-7-----------|-7-7-7-7-7-7-7-7-|--5-4-0-5-4-0-0--|

Bridge
G------------------|-----------------|-----------------|-----------------|
D------------------|-----------------|-----------------|-----------------|
A------------------|-----------------|-----------------|-----------------|
D------------------|-----------------|-----------------|-----------------|

Guitar Solo 1
G------------------|----------------|-----------------|------------------|
D------------------|----------------|-----------------|------------------|
A------------------|----------------|-----------------|------------------|
D--5-5-5-5-0-0-0-0-|7-7-7-7-0-0-0-0-|-5-5-5-5-0-0-0-0-|-7-7-7-7~~~~~~~-7-|

G------------------|----------------|-----------------|------------------|
D------------------|----------------|-----------------|------------------|
A------------------|----------------|-----------------|------------------|
D--5-5-5-5-0-0-0-0-|7-7-7-7-0-0-0-0-|-2-2-2-2-2-2-2-2-|-2~~~~~~~~~~~~~~--|

Chorus
G------------------|-----------------|-----------------|-----------------|
D------------------|-----------------|-----------------|-----------------|
A------------------|-------5-5-5-5-5-|-----------------|-----------------|
D--4-4-4-5-5-5-5-5-|-7-7-7-----------|-9-9-9-5-5-5-5-5-|-7-7-7-0-0-0-0-2-|


G------------------|-----------------|-----------------|-----------------|
D------------------|-----------------|-----------------|-----------------|
A------------------|-------5-5-5-5-5-|-----------------|-----------------|
D--4-4-4-5-5-5-5-5-|-7-7-7-----------|-7-7-7-7-7-7-7-7-|--5-4-0-5-4-0-0--|


Guitar Solo 2

G------------------|-----------------|-----------------|-----------------|
D------------------|-----------------|-----------------|-----------------|
A------------------|-------5-5-5-5-5-|-----------------|-----------------|
D--4-4-4-5-5-5-5-5-|-7-7-7-----------|-9-9-9-5-5-5-5-5-|-7-7-7-0-0-0-0-2-|


G------------------|-----------------|-----------------|-----------------|
D------------------|-----------------|-----------------|-----------------|
A------------------|-------5-5-5-5-5-|-----------------|-----------------|
D--4-4-4-5-5-5-5-5-|-7-7-7-----------|-7-7-7-7-7-7-7-7-|--5-4-0-5-4-0-0--|


G------------------|-----------------|-----------------|-----------------|
D------------------|-----------------|-----------------|-----------------|
A------------------|-------5-5-5-5-5-|-----------------|-----------------|
D--4-4-4-5-5-5-5-5-|-7-7-7-----------|-9-9-9-5-5-5-5-5-|-7-7-7-0-0-0-0-2-|


G------------------|-----------------|-----------------|-----------------|
D------------------|-----------------|-----------------|-----------------|
A------------------|-------5-5-5-5-5-|-----------------|-----------------|
D--4-4-4-5-5-5-5-5-|-7-7-7-----------|-7-7-7-7-7-7-7-7-|--5-4-0-5-4-0-0--|


G------------------|-----------------|-----------------|-----------------|
D------------------|-----------------|-----------------|-----------------|
A------------------|-------5-5-5-5-5-|-----------------|-----------------|
D--4-4-4-5-5-5-5-5-|-7-7-7-----------|-9-9-9-5-5-5-5-5-|-7-7-7-0-0-0-0-2-|


G------------------|-----------------|-----------------|-----------------|
D------------------|-----------------|-----------------|-----------------|
A------------------|-------5-5-5-5-5-|-----------------|-----------------|
D--4-4-4-5-5-5-5-5-|-7-7-7-----------|-7-7-7-7-7-7-7-7-|--5-4-0-5-4-0-0--|
Comments