Darkness - Givin Up Chords & Tabs

 

Givin Up Chords & Tabs

Darkness Chords & Tabs

Version: 2 Type: Tab 0 ratings
1 star 2 stars 3 stars 4 stars 5 stars
comments

Givin Up Tab

Intro   e---------------------------------
        b--4-4-5-4-4-4-5-4-4-4-5-4--------
        g--4-4-4-4-4-4-4-4-4-4-4-4-----3-4
        d--4-4-6-4-4-4-6-4-4-4-6-4-4-4-3-4
        a--------------------------4-4-1-2
        E--------------------------2-2----



verse   e------------------      
        b------------------
        g--4-4----------3-4
        d--4-4-6-4-6-44-3-4
        a--2-2-6-4-6-44-1-2
        E------4-2-4-22----
[ Tab from: http://www.guitartabs.cc/tabs/d/darkness/givin_up_tab_ver_2.html ]
       
        e---------------4-3--
        b---------------5-4-4
        g---------------4-3-4  REPEAT THIS TWICE
        d--4-4-44-4-4-------4
        a--4-4-44-4-4--------
        E--2-2-22-2-2--------

        e--0-0-0-0-0hold string-0-0-0-0-----2
        b--0-4-2-0-0hold string-0-4-2-0-2/4--
        g----------1hold string--------------
        d------------------------------------
        a------------------------------------
        E------------------------------------


chorus=same as intro and verse together
Comments