Darkness - Friday Night Chords & Tabs

 

Friday Night Chords & Tabs

Darkness Chords & Tabs

Version: 1 Type: Tab 0 ratings
1 star 2 stars 3 stars 4 stars 5 stars
comments

Friday Night Tab

Artist: The Darkness
Song: Friday night (solos)
Album: Permission to land

Intro:

E-----0--------------------------------------------------------------------|
B--1~---5-4-0--------------5-5---4~----------------------------------------|
G--2~---------6----------------6-------------------------------------------|
D--2~-----------7~-7-6-7-6-------------------------------------------------|
A--------------------------------------------------------------------------|
E--------------------------------------------------------------------------|

Bit just before the first solo:

E-----0--------------------------------------------------------------------|
B--1~---5-4-0--------------5-5---4~----------------------------------------|
G--2~---------6----------------6-------------------------------------------|
D--2~-----------7~-7-6-7-6-------------------------------------------------|
A--------------------------------------------------------------------------|
E--------------------------------------------------------------------------|

[This is repeated twice and the solo follows, but there are some other notes
included after each time you play this riff. But they're not that important!]

Solo (01:25)
[ Tab from: http://www.guitartabs.cc/tabs/d/darkness/friday_night_tab.html ]
E--------------------------------------------------------------------------|
B---9-7-5-4-5-2---2---2----8-8-5-7-----------9-7-5-4-5-2---2---2----9-9/12~|
G-------------------4---4------------------------------------4---4---------|
D-6--------------------------------x-6/7\6---------------------------------|
A--------------------------------------------------------------------------|
E--------------------------------------------------------------------------|

Solo (02:10)

E-------------------------------------------------------------|
B--9/12~--12-11\10\9--10-9-7\6\5---9-7\6\5--7-9-9-7-----------|
G---------------------------------------------------4~--------|
D-------------------------------------------------------------|
A-------------------------------------------------------------|
E-------------------------------------------------------------|


E-------------------------------------------------------------|
B--[12~-*]--12--21-19-x-21-x-21-19-^---9-7-5-4-5-2---2---2----|
G------------------------------------------------------4---4--|
D-------------------------------------------------------------|
A-------------------------------------------------------------|
E-------------------------------------------------------------|

E-------------------------------------------------------------|
B--9-9\7~---9-7-5-4-5-2---2---2----9-9/12-9-7\6\5\4--4/5~-----|
G---------------------------4---4-----------------------------|
D-------------------------------------------------------------|
A-------------------------------------------------------------|
E-------------------------------------------------------------|

*Play a load of fast stuff on the frets before 12
^Play a load of fast stuff moving down the fret board from 21 to 12

I believe that is fairly accurate, just not very detailed. The other version
doesn't have the solos so I thought..might as well. And James; I am not a
Darkness boy! $hab
Comments