Darkness - English Country Garden Live Chords & Tabs

 

English Country Garden Live Chords & Tabs

Darkness Chords & Tabs

Version: 1 Type: Tab 0 ratings
1 star 2 stars 3 stars 4 stars 5 stars
comments

English Country Garden Live Tab

New Darkness song English Country Garden (Song has not been finished this is just live version)

Intro

1-----------------------------------------------------|
2-----------------------------------------------------|
3-----------------------------------------------------|
4--xxxxxxxxxxx--7777----------------7777--------------|
5--xxxxxxxxxxx--7777-------5----5---7777------5----5--|
6--xxxxxxxxxxx--5555----7-----7-----5555---7-----7----|

Verse

1-----------------------------------------------------|
2--------7--------------------------------------------|
3--9-9-8---6------------------------------------------|
4-----------------------------------------------------|
5-----------------------------------------------------|
6----------------2v--4v--5v--7v-----------------------|

X3

Chorus
[ Tab from: http://www.guitartabs.cc/tabs/d/darkness/english_country_garden_live_tab.html ]
1------------------------------/-----------------------|
2------------------------------/-----------------------|
3------------------------------/-----------------------|
4------------------------------/---7777----------------|
5--7v--6v--5v--4v--3v--2v--1v--/---7777----------------|
6------------------------------/---5555----------------|
                            X4   Last One end like this^

Solo (They havent done all full version yet)

1------------------------------------------------------------|
2----------17-17-17-17--19b-19b--17-17-17-17-----------------|
3--2--3--------------------------------------------2--3------|
4--2--2--------------------------------------5555--2--2------|
5--0--0--------------------------------------5555--0--0------|
6--------------------------------------------3333------------|

Its 80% Right
Comments