Darkness - Dinner Lady Arms Chords & Tabs

 

Dinner Lady Arms Chords & Tabs

Darkness Chords & Tabs

Version: 4 Type: Tab

Dinner Lady Arms Tab

This is how I think the solo goes.
Feel free to inform me of any errors.

2 guitars. Standard tuning.

Guitar 1:

E|----161616----161616----161616----161616-|16's.I think it's down-stroke,
B|-17--------17--------17--------17--------| up-stroke, down-stroke really,
G|-----------------------------------------| really quickly.
D|-----------------------------------------|
A|-----------------------------------------|
E|-----------------------------------------|

E|----141414----141414----141414----141414-|14's
B|-16--------16--------16--------16--------|
G|-----------------------------------------|
D|-----------------------------------------|
A|-----------------------------------------|
E|-----------------------------------------|

E|-19b(21)--19v-17-16v----17b(19)-17-16-17br-16|
B|---------------------12----------------------|
G|---------------------------------------------|
D|---------------------------------------------|
A|---------------------------------------------|
E|---------------------------------------------|

Guitar 2
          ^        ^         ^
          played with previous bar
[ Tab from: http://www.guitartabs.cc/tabs/d/darkness/dinner_lady_arms_tab_ver_4.html ]
E|-------------------------------------------------|
B|-16b(17)-16v-14-12v----16b(17)-14----14h17p14----|
G|--------------------13------------16----------16-|
D|-------------------------------------------------|
A|-------------------------------------------------|
E|-------------------------------------------------|

Guitar 1:

E|----------------------------------------------------------------------|
B|-17-------16-------14----16----------------------12-------------------|
G|----------------------------------14-------13-------------14-------13-|
D|----14-14----14-14----14----14-14----14-14----14----14-14----14-14----|
A|----------------------------------------------------------------------|
E|----------------------------------------------------------------------|

E|--------------------------------------------------------------------------|
B|--------------------------------------------------------------------------|
G|-------14-------12b(13)hold---------------------9-----11b(13)-11--9--8(9)-|
D|-14-14----14-14-13b(14)hold-(14)rbp11/9------------9----------------------|
A|--------------------------------------------11----------------------------|
E|----------------------------------------12--------------------------------|
                                                                         ^
                                                                  hold bend
I'm pretty sure that this is 95% correct.