Darkness - Dinner Lady Arms Chords & Tabs

 

Dinner Lady Arms Chords & Tabs

Darkness Chords & Tabs

Version: 3 Type: Tab

Dinner Lady Arms Tab

This is a great song by a brilliant band. Sorry I could'nt tab the solo (too fast 4 me!) :)
PLEASE RATE THIS TAB!! ;D

Tuning:Standard

Intro:
                                    
Guitar 1, clean.                                                       
                                                                        
E|---9-------9---------|---7-----7------|---7-----7------|---7-7---7-7-----|
B|-7---7-------7-----7-|-----9-----9---9|-----7-----7---7|---------------7-|
G|-------9-------9-----|-9-----9-----9--|-------8-----8--|-------9-----9---|
D|---------------------|----------------|----------------|-----------------|
A|---------------------|----------------|----------------|-----------------|
E|---------------------|----------------|----------------|-----------------|     
<<<<<<<<<<<>>>>>>>>>>>>>>>>>>>>>>>>>>>>>

Verse:

E|---------------------|-------------------|----------------|
B|---------------------|-------------------|----------------|
G|---------------------|-----9-9--11-9----9|---8-9---8-9---8|
D|---7-9-----7-9-----7-|--11----11-----11--|-9-----9-----9--|
A|-9------9-------9----|-------------------|----------------|
E|---------------------|-------------------|----------------|

E|----------------|
B|-----5-----5----|                      ^
G|---6-----6------|    <[ Tab from: http://www.guitartabs.cc/tabs/d/darkness/dinner_lady_arms_tab_ver_3.html ]
E|-------------------------------------------------------------------|
B|-------------------------------------------------------------------|
G|-8-6-8-9---(9)--------------------8-6-8-9---(9)---4---6-4-6-4------|
D|------------------7-6-6-4-4-2-2-2---------------6---6---------6-4--|
A|------------------------------------------------------------------7|
E|-------------------------------------------------------------------|


Pre Chorus

E|---------------|
B|---------------|                                       
G|---------------|
D|-6----7----9---|
A|-6----7----9---|
E|-4----5----7---|

Chorus

E|---------------------------------------------------------------------|
B|---------------------------------------------------------------------|
G|------------------6---6-----------------------------6----6-----------|
D|-2-2-2-2-2-2-2-2--4---4---7---7---4---4-2----2-4----6----6----7----7-| x2
A|-2-2-2-2-2-2-2-2--4---4---7---7---4---4-2----2-4----4----4----7----7-|
E|-0-0-0-0-0-0-0-0----------5---5---2---2-0----0-2--------------5----5-|
  aaaaaaarrrrrmmms                around me           dinner lady arms


E|----------------------------------------------------------------------|
B|----------------------------------------------------------------------|
G|------------------6---6-----------------------------6--6--6-----------|
D|-2-2-2-2-2-2-2-2--4---4---7---7---4---4-2----2-4----6--6--6----7----7-| 
A|-2-2-2-2-2-2-2-2--4---4---7---7---4---4-2----2-4----4--4--4----7----7-|
E|-0-0-0-0-0-0-0-0----------5---5---2---2-0----0-2---------------5----5-|
 ...I couldn't figure out...                          i was so wrong

Outro:

E|-------------------------|
B|-------------------------|
G|-6----6------------------|
D|-6----6----7----7----2---|
A|-4----4----7----7----2---|Let Ring.
E|-----------5----5----0---|

The rythym guitar underneath the solo is just the same as the chorus.  

NOTE:THE REST OF THE VERSES ARE THE SAME AS THE INTRO

Order:
intro
verse
bridge
pre chorus
chorus
verse
bridge
pre chorus
chorus
solo
pre chorus
chorus 
outro