Darkness - Curse Of The Tollund Man Chords & Tabs

 

Curse Of The Tollund Man Chords & Tabs

Darkness Chords & Tabs

Version: 1 Type: Tab 0 ratings
1 star 2 stars 3 stars 4 stars 5 stars
comments

Curse Of The Tollund Man Tab

E|-12b-12br-10--9h10p9----9------------------------------------------------|
B|---------------------12---12-10------------------------------------------|
G|---------------------------------12-11-9---------------------------10h12-|
D|-----------------------------------------12---9p8-9-9p8-9-9p8h9h11-------|
A|-------------------------------------------------------------------------|
E|-------------------------------------------------------------------------|

E|------------------------------------------------------------16h17p16-----|
B|-11h12-12-12-12p11h12p11h12-slide---14h15p14----14h15p14-------------19--|
G|---------------------------------------------16----------16--------------|
D|-------------------------------------------------------------------------|
A|-------------------------------------------------------------------------|
E|-------------------------------------------------------------------------|
[ Tab from: http://www.guitartabs.cc/tabs/d/darkness/curse_of_the_tollund_man_tab.html ]
E|-16h17p16----------------------------------------------------------------|
B|----------19--17b-17-15-17-15---------------------------------------13---|
G|------------------------------16p14h16b~------------------14p13h14-------|
D|-------------------------------------------------15p14h15----------------|
A|-----------------------------------------15p14h15------------------------|
E|-------------------------------------------------------------------------|

E|----------15--17-17-17p15h17-18-17~--------------------------------------|
B|-18-17-18----------------------------------------------------------------|
G|-------------------------------------------------------------------------|
D|-------------------------------------------------------------------------|
A|-------------------------------------------------------------------------|
E|-------------------------------------------------------------------------|

Enjoy. Any corrections email me at stud14_92@hotmail.com
Comments