Darkness - Black Shuck Chords & Tabs

 

Black Shuck Chords & Tabs

Darkness Chords & Tabs

Version: 1 Type: Tab 0 ratings
1 star 2 stars 3 stars 4 stars 5 stars
comments

Black Shuck Tab

   
tuning low to high - e, a, d, g, b, e, 

intro guitar 1
|--------------------------------------------------------|
|--------------------------------------------------------|
|-----------------------------7---------------------7----|
|-----------------------------7---------------------7----|
|-----------------------------5---------------------5----|
|-3--0-0--0-0-0-5--0-0--0-0-0----0-0--0-0-0-7-5-3-0----0-|

guitar 2
|-----------------------------------------------------------|
|-----------------------------------------------------------|
|-----------------------------------------------------------|
|------2------2------2------2------2------2------2------2-2-|
|------2------2------2------2------2------2------2------2-2-|
|------0------0------0------0------0------0------0------0-0-|  let ring
[ Tab from: http://www.guitartabs.cc/tabs/d/darkness/black_shuck_tab.html ]
intro part 2/chorus - both guitars
|-3------------------------------------------------------|
|-3------------------------------------------------------|
|-0---------------------------7---------------------7----|
|-0--2-2--2-2-2-7--2-2--2-2-2-7--2-2--2-2-2---------7--2-|
|-x--2-2--2-2-2-7--2-2--2-2-2-5--2-2--2-2-2---------5--2-|
|-3--0-0--0-0-0-5--0-0--0-0-0----0-0--0-0-0-7-5-3-0----0-|

verse - guitar 2
|----------------------------------------|
|----------------------------------------|
|----------------------------------------|
|-7--7-7-7-5--5-5-5-3--3-3-3-------------|
|-7--------------------------------------|
|-5--------------------------2-3-5-0-2-3-|

|-------------------------------------0--2-|
|-------------------------------------0--3-|
|-------------------------------------1--2-|
|-2-7--7-7-7-5--5--5-5-5-4--4--4-4-4--2--0-|
|-2-7--7-7-7-5--5--5-5-5-4--4--4-4-4--2--0-|
|-0-5--5-5-5-3--3--3-3-3-2--2--2-2-2--0----|

bridge
|----------|
|-33333333-|
|-22222222-|
|-00000000-|
|----------|
|----------|

cudnt be bothered showing what goes where etc but its all in ther
ull just have to listen for timing and wotever
Comments