Darkness - Bareback Chords & Tabs

 

Bareback Chords & Tabs

Darkness Chords & Tabs

Version: 3 Type: Tab 0 ratings
1 star 2 stars 3 stars 4 stars 5 stars
comments

Bareback Tab

hi im lewis and i think this song is wicked. i hear that the darkness are doing good in
america and im glad to hear it...... well so heres the tab
lewis


INTRO (other tabs say its palm muted notes but it sounds better like this)
E|--------------------------------------------------------|
B|--------------------------------------------------------|
G|-5------4-------0-2--2---------Just repeat that twice i think !
D|-keep a steady beat of this string open!!---------------|
A|--------------------------------------------------------|
E|--------------------------------------------------------|
[ Tab from: http://www.guitartabs.cc/tabs/d/darkness/bareback_tab_ver_3.html ]
Verse
E----------------------------------------------------------|
B----------------------------------------------------------| \
G--2--2--5--4-4--2--2--4--0--0---2--2--5--4-4--2--2--4--0-0|  \
D----------------------------------------------------------|   -repeat that
A----------------------------------------------------------|  /
E----------------------------------------------------------| /

SORT OF RIFF A
E|-2-----------------------------------|
B|-3-----------------------------------|
G|-2-----------------------------------|
D|-----------0--------0-------2----0---|  then do the verse a few times
A|---------0--------0---------3----2---|
E|-------2--------3--------------------|

SORT OF RIFF B
E|--3--3--3---3---3-----------------|
B|--0--0--0---0---0-----------------|
G|--0--0--0---0---0-----------------|
D|--0--0--0---0---0------2--0-------|
A|--2--2--2---2---2------3--2-------|
E|--3--3--3---3---3-----------------|



any way thats it for the song apart from the solo. its a bit hard to tab for me but if
u can find it then hope u learn it!
thanxs
lewis
Comments