Darkest Hour - The Patriot Virus Chords & Tabs

 

The Patriot Virus Chords & Tabs

Darkest Hour Chords & Tabs

Version: 1 Type: Tab 0 ratings
1 star 2 stars 3 stars 4 stars 5 stars
comments

The Patriot Virus Tab

   
-----------------------------------------------------------------------
DARKEST HOUR - THE PATRIOT VIRUS 
-----------------------------------------------------------------------
Tabbed by: MidnightRapture
Email:MyChemicalVengeance@hotmail.com
Tuning: Dropped-C
[ Tab from: http://www.guitartabs.cc/tabs/d/darkest_hour/the_patriot_virus_tab.html ]
Intro/verse
Guitar-1
|--------------------------------------------------------------------|
|--------------------------------------------------------------------|
|--------------------------------------------------------------------|
|--------------------------------------------------------------------|
|----------5-----5------5-----8p7h8-----101010----888----888----777--|
|--12/0-0000-00000--00000-0000------888-------888----777----777------|
        ...  ....   ....  ....      ...       ...    ...    ...
(Guitar 2 Enters here by sliding 12/0 and then plays same as Guitar 1)
|--------------------------------------------------------------------|
|--------------------------------------------------------------------|
|--------------------------------------------------------------------|
|--------------------------------------------------------------------|
|------5-----5-----5------8p7h8----10-8-0-8-7-0-7-5-0-8-7-5----------|
|---0000-00000-00000-0000-------888----------------------------------|
    ...  ....  ....  ....       ...
|--------------------------------------------------------------------|
|--------------------------------------------------------------------|
|--------------------------------------------------------------------|
|--------------------------------------------------------------------|
|------5-----5-----5------8p7h8-----777-----888-----888-----777------|
|---0000-00000-00000-0000-------888-----888-----777-----777----------|           
    ...  ....  ....  ....       ...     ...     ...     ...
|--------------------------------------------------------------------|
|--------------------------------------------------------------------|
|--------------------------------------------------------------------|
|--------------------------------------------------------------------|
|------5-----5-----5------8p7h8----121212121212128/101010101010888888|
|---0000-00000-00000-0000-------888----------------------------------|
    ...  ....  ....  ...        ...
|--------------------------------------------------------------------|
|--------------------------------------------------------------------|
|--------------------------------------------------------------------|
|--------------------------------------------------------------------|
|------5-----5-----5------8p7h8-----777-----888-----888-----777------|
|---0000-00000-00000-0000-------888-----888-----777-----777----------|           
    ...  ....  ....  ....       ...     ...     ...     ...
|--------------------------------------------------------------------|
|--------------------------------------------------------------------|
|--------------------------------------------------------------------|
|--------------------------------------------------------------------|
|------5-----5-----5------8p7h8----121212121212128/101010101010888888|
|---0000-00000-00000-0000-------888----------------------------------|
    ...  ....  ....  ...        ...





Chorus
|--------------------------------------------------------------------|
|--------------------All-Triplets------------------------------------|
|----14--14--12--10--14--14--12--10--14--14--12--10--14--14--15--17--|
|-----x---x---x---x---x---x---x---x---x---x---x---x---x---x---x---x--|
|----12--12--10--8---12--12--10---8--12--12--10---8--12--12--13--15--|
|--------------------------------------------------------------------|

Breakdown (  rough outline from here not all right)(only guitar 1)

|--------------------------------------------------------------------|
|--------------------------------------------------------------------|
|--------------------------------------------------------------------|
|--------------------------------------------------------------------|
|--------5-5-7----5-5-7----4-4-5-------------------------------------|
|------7--------5--------3-----------3333----------------------------|

2nd part of Breakdown
|--------------------------------------------------------------------|
|--------------------------------------------------------------------|
|------7-77-777-7-77-777-7-77-777-7-77-777-7-777---------------------|
|------x-xx-xxx-x-xx-xxx-x-xx-xxx-x-xx-xxx-x-xxx---------------------|
|------5-55-555-5-55-555-5-55-555-5-55-555-5-555---------------------|
|--------------------------------------------------------------------|



That's It for the song, if you have any questions, e-mail me at MyChemicalVengeance@hotmail.com
Darkest Hour Kicks ass

| h  hammer-on
| p  pull-off
| .  palm mute




=======================================================================
Comments