Darkest Hour - Broken Wings Chords & Tabs

 

Broken Wings Chords & Tabs

Darkest Hour Chords & Tabs

Version: 1 Type: Tab 0 ratings
1 star 2 stars 3 stars 4 stars 5 stars
comments

Broken Wings Tab

   
Darkest Hour - Broken Wings     Tabbed by John Tulip - kennyg14_jt@hotmail.com
Downtune 1 whole step, Drop-D


There are actually 3 Guitars playing during the course of this song. All Acoustics, in the same tuning i believe.
Gtr. 2 we'll call it is just playing over top of the main riff, and Gtr. 3 is pretty much a simple filler that
you can kind of hear in the back. You could do without guitar 3, and this song would still be very melodic.
[ Tab from: http://www.guitartabs.cc/tabs/d/darkest_hour/broken_wings_tab.html ]
Gtr. 1 - Main Riff
|------------------------------------------------------------------------------------------|
|------------------------------------------------------------------------------------------|
|----------------------------------------------------------------------:-------------------|
|------------------------------------------------------------------------------------------|
|-----8---7h8-8-8---/15p13---13p12\10p8----7-------7h8---7-----7---7---:-------------------|
|-0-0---0---------0--------0------------10---10-10-----5---5-5---5-------------------------|


Gtr. 2 - Play over top Main riff throughout.
|---------------------------------------------|
|---------------------------------------------|
|---------------------------------------------|
|---------------------------------------------|
|--5-7-7----8--8--8-5-----8-7-5-5-7-7---------|
|--7-8-8---10-10-10-7----10-8-7-7-8-8---------|

Gtr. 3 - All this is is a single note, but the timing is rather Weird. Best bet is if you want to include this
while playing, you'll have to listen to the song, and find a way to get the timing down. It can be heard 
a sort
of drone type note whilst the Open C's are being played for the main riff.
|---------------------------------------------|
|---------------------------------------------|
|---------------------------------------------|
|---------------------------------------------|
|--15--15-1515--15--15------------------------|    *Note, that is no where near proper Timing...  *
|---------------------------------------------|
Comments