Dark Winter - Sanity Chords & Tabs

 

Sanity Chords & Tabs

Dark Winter Chords & Tabs

Version: 1 Type: Tab 0 ratings
1 star 2 stars 3 stars 4 stars 5 stars
comments

Sanity Tab

   
------------------------------------------------------------
	  Sanity - Dark Winter
------------------------------------------------------------

By:Doo Scott

I am the guitarist for this band so the tabs I write for you will be the real thing.

Intro        Play this first part 3x then play the 2nd line
e|----------------------------------------------------------
B|----------------------------------------------------------
G|----------------------------------------------------------
D|------5-7-8-----------------------------------------------
A|-0-0------------------------------------------------------
D|----------------------------------------------------------

e|----------------------------------------------------------
B|----------------------------------------------------------
G|----------------------------------------------------------
D|------7---------------------------------------------------
A|-0--0-----------------------------------------------------
D|----------------------------------------------------------

Riff 1 This is your main riff
e|----------------------------------------------------------
B|----------------------------------------------------------
G|----------------------------------------------------------
D|-3-5-7-0-3-5-7-0-3-5-7-0-3-5-7-0-7-5-3-0-7-5-3-0-7-5-3-0-
A|-3-5-7-0-3-5-7-0-3-5-7-0-3-5-7-0-7-5-3-0-7-5-3-0-7-5-3-0-
D|-3-5-7-0-3-5-7-0-3-5-7-0-3-5-7-0-7-5-3-0-7-5-3-0-7-5-3-0-
[ Tab from: http://www.guitartabs.cc/tabs/d/dark_winter/sanity_tab.html ]
e|----------------------------------------------------------
B|----------------------------------------------------------
G|----------------------------------------------------------
D|-7-5-3-0--------------------------------------------------
A|-7-5-3-0--------------------------------------------------
D|-7-5-3-0--------------------------------------------------

Verse 1(part1)
e|----------------------------------------------------------
B|----------------------------------------------------------
G|----------------------------------------------------------
D|-3------1------0-------2----------------------------------
A|-3------1------0-------2----------------------------------
D|-3------1------0-------2----------------------------------

Verse 1(part2)
e|----------------------------------------------------------
B|----------------------------------------------------------
G|----------------------------------------------------------
D|-3------1------0-------2-22-2-2-22-2----------------------
A|-3------1------0-------2-22-2-2-22-2----------------------
D|-3------1------0-------2-22-2-2-22-2----------------------

Riff 1
Verse 1 part1 Verse 1 part2 2x

Verse 2
e|----------------------------------------------------------
B|----------------------------------------------------------
G|----------------------------------------------------------
D|-5------7------4------5-----------------------------------
A|-5------7------4------5-----------------------------------
D|-5------7------4------5-----------------------------------

Riff 1
Intro

Riff 2 4x
e|----------------------------------------------------------
B|----------------------------------------------------------
G|----------------------------------------------------------
D|-55555555-77777777-44444444-555555555---------------------
A|-55555555-77777777-44444444-555555555---------------------
D|-55555555-77777777-44444444-555555555---------------------

Riff 1
Verse 1 part1 Verse 1 part2 2x
End with Riff 1
Comments