Dark Winter - Fucked Again Chords & Tabs

 

Fucked Again Chords & Tabs

Dark Winter Chords & Tabs

Version: 1 Type: Tab 0 ratings
1 star 2 stars 3 stars 4 stars 5 stars
comments

Fucked Again Tab

   
------------------------------------------------------------
	          F*cked Again- Dark Winter
------------------------------------------------------------

By: Doo Scott

Remember this is only half the song.
This song contains no lyrics and is played on a seven string guitar

Intro x5
e|------------------------------------------
B|------------------------------------------
G|------------------------------------------
D|------------------------------------------
A|-3333555566668888-------------------------
E|-3333555566668888-------------------------
B|-3333555566668888-------------------------

Fill 1 x6
e|-------------------------------------------
B|-------------------------------------------
G|------0-----0-----0-----0------------------
D|----9-----8-----9-----8--------------------
A|--7-----6-----7-----6----------------------
E|-------------------------------------------
B|-------------------------------------------

Now is where it gets heavy and fast

Fill 2 x4
e|--------------------------------------------
B|--------------------------------------------
G|--------------------------------------------
D|--------------------------------------------
A|-9-9-99-9-----------------------------------
E|-9-9-99-9-----------------------------------
B|-9-9-99-9-----------------------------------

Fill 3 x2
e|--------------------------------------------
B|--------------------------------------------
G|--------------------------------------------
D|--------------------------------------------
A|-9-99-99-7-77-77-8-88-88-66667777-----------
E|-9-99-99-7-77-77-8-88-88-66667777-----------
B|-9-99-99-7-77-77-8-88-88-66667777-----------

Fill 4 x2
e|------------------------------------------------
B|------------------------------------------------
G|------------------------------------------------
D|------------------------------------------------
A|-9-99-99-9-99-99-7-77-77-7-77-77-5-55-55-5-55-55
E|-9-99-99-9-99-99-7-77-77-7-77-77-5-55-55-5-55-55
B|-9-99-99-9-99-99-7-77-77-7-77-77-5-55-55-5-55-55
[ Tab from: http://www.guitartabs.cc/tabs/d/dark_winter/fucked_again_tab.html ]
e|-------------------------------------------------
B|-------------------------------------------------
G|-------------------------------------------------
D|-------------------------------------------------
A|-3-33-33-3-33-33---------------------------------
E|-3-33-33-3-33-33---------------------------------
B|-3-33-33-3-33-33---------------------------------

Riff 1 x2
e|-------------------------------------------------
B|-------------------------------------------------
G|-------------------------------------------------
D|-------------------------------------------------
A|-33333333333333334444444455555555----------------
E|-33333333333333334444444455555555----------------
B|-33333333333333334444444455555555----------------

e|-------------------------------------------------
B|-------------------------------------------------
G|-------------------------------------------------
D|-------------------------------------------------
A|-33333333333333336666666677777777----------------
E|-33333333333333336666666677777777----------------
B|-33333333333333336666666677777777----------------

Riff 2 x2
e|--------------------------------------------------
B|--------------------------------------------------
G|--------------------------------------------------
D|--------------------------------------------------
A|-9-99-88-9-99-88-7-77-88-7-77-88------------------
E|-9-99-88-9-99-88-7-77-88-7-77-88------------------
B|-9-99-88-9-99-88-7-77-88-7-77-88------------------

Riff 1 x1
Riff 2 x2

Riff 3 x2
e|---------------------------------------
B|---------------------------------------
G|---------------------------------------
D|---------------------------------------
A|---------------------------------------
E|-55555555555555554444444444444444------
B|-55555555555555554444444444444444------

e|---------------------------------------
B|---------------------------------------
G|---------------------------------------
D|---------------------------------------
A|-99999999999999997777777788888888------
E|-99999999999999997777777788888888------
B|-99999999999999997777777788888888------

Fill 5 x2
e|-------------------------|-------------------
B|-------------------------|-------------------
G|-------------------------|-------------------
D|-------------------------|-------------------
A|-3---5--------3---5---7--|--9-----------------
E|-3---5--------3---5---7--|--9-----------------
B|-3---5--------3---5---7--|--9-----------------
			Finish with this
Comments