Dark Tranquillity - The Sun Fired Blanks Chords & Tabs

 

The Sun Fired Blanks Chords & Tabs

Dark Tranquillity Chords & Tabs

Version: 1 Type: Tab 0 ratings
1 star 2 stars 3 stars 4 stars 5 stars
comments

The Sun Fired Blanks Tab

   
The Sun Fired Blanks by Dark Tranquillity
From the Projector album
Tabbed by Bear

Heres the Sun Fired Blanks tab, by Dark Tranqullity.I havent seen this song
tabbed antwhere els so i decided to do it.You'll have to listen to the
song to get the timing though.

Tune gtr to C# (C#,F#,B,E,G#,C#)



Riff 1

|-12-0-0-0-12-0-0-0-0-0-10-0-12-0-0-0-|-8-0-7-0-0-0-8-0-7-0-0-0-10-0-0-0-|
|-------------------------------------|----------------------------------|
|-------------------------------------|----------------------------------|
|-------------------------------------|----------------------------------|
|-------------------------------------|----------------------------------|
|-------------------------------------|----------------------------------|

|-12-0-0-0-12-0-0-0-0-0-10-0-12-0-0-0-|-8-0-7-0-0-0-10-8-7---------------|
|-------------------------------------|--------------------8-------------|
|-------------------------------------|----------------------9-~~--------|
|-------------------------------------|----------------------------------|
|-------------------------------------|----------------------------------|
|-------------------------------------|----------------------------------|

|-12-0-0-0-12-0-0-0-0-0-10-0-12-0-0-0-|-15-0-14-0-0-0-15-0-14-0-0-0------|
|-------------------------------------|-----------------------------15~--|
|-------------------------------------|----------------------------------|
|-------------------------------------|----------------------------------|
|-------------------------------------|----------------------------------|
|-------------------------------------|----------------------------------|

|-12-0-0-0-12-0-0-0-0-0-10-0-12-0-0-0-|-7-0-0-0-7-0-0-0-0-0-5-0-7-0-0-0--|
|-------------------------------------|----------------------------------|
|-------------------------------------|----------------------------------|
|-------------------------------------|----------------------------------|
|-------------------------------------|----------------------------------|
|-------------------------------------|----------------------------------|

Riff 2


|---------------------|--------------------|
|---------------------|--------------------|
|----------------h----|--------------------|
|-2---2---------0-2---|-5-4---5-4----------|
|-2---2---------0-2---|-3-2-0-3-2-0-0-2-~--|
|-0-0-0-0-0-0-0-0-----|--------------------|

|---------------------|--------------------|---------------|
|---------------------|--------------------|---------------|
|----------------h----|--------------------|---------------|
|-2---2---------0-2---|-5-4---5-4----------|-5-4------2----|
|-2---2---------0-2---|-3-2-0-3-2-0-0-2-~--|-3-2------2----|
|-0-0-0-0-0-0-0-0-----|--------------------|------3-2-0----|

Riff 3

|-------------------------------------|----------------------------------|
|-------------------------------------|----------------------------------|
|-------------------------------------|----------------------------------|
|-9----------9----------11-12--11-----|------------------9---7-----------|
|-7--7-7-7-7-7--7-7-7-7-9--10--9------|-7--7-7-7-7-7-7---10--9-----------|
|-------------------------------------|----------------------------------|
[ Tab from: http://www.guitartabs.cc/tabs/d/dark_tranquillity/the_sun_fired_blanks_tab.html ]
|-------------------------------------|------------------------------------|
|-------------------------------------|------------------------------------|
|-------------------------------------|------------------------------------|
|-9--------9----------11-12--11-------|------------------------------------|
|-7--7-7-7-7--7-7-7-7-9--10--9--------|-9----------------------------------|
|-------------------------------------|-7--7-7-7-7--8-----5--3--7--5--3--2-|


RIff 4

|--------12---------------12-----|-------p---h--------p--h-----|---h------------|
|----10------10-------10------10-|-13--12--10--12---10--8--10--|-10--12--8-7----|
|-9----------------9-------------|-----------------------------|----------------|
|--------------------------------|-----------------------------|----------------|
|--------------------------------|-----------------------------|----------------|
|--------------------------------|-----------------------------|----------------|


|--------12---------------12-----|-------p---h--------p--h---h------------|
|----10------10-------10------10-|-13--12--10--12---10--8--10--12--8-7----|
|-9----------------9-------------|----------------------------------------|
|--------------------------------|----------------------------------------|
|--------------------------------|----------------------------------------|
|--------------------------------|----------------------------------------|



Riff 5

this is just riff 4 but picked faster
-

Riff 6

|--------------|---------------|--------------|-----------------|
|--------------|---------------|--------------|-------------17--|
|-9--11--12--9-|-9--11--12--14-|--12--14--16--|-12--14--16------|
|--------------|---------------|--------------|-----------------|
|--------------|---------------|--------------|-----------------|
|--------------|---------------|--------------|-----------------|
|--------------|---------------|--------------|-----------------


Solo thing

|-------------|---------------|---------------|-----|
|-------------|---------------|---------------|-----|
|-------------|---------------|---------------|-----|
|-------------|---------------|---------------|-----|
|---7--9-9-10-|-(10)--10--12--|-9---9--10--9--|--7--|
|-------------|---------------|---------------|-----|

|-------------|--------------|----------------|----------------|
|-------------|--------------|----------------|----------------|
|-------------|--------------|----------------|----------------|
|-------------|-9-----10--9--|-7--7--9--10----|--9---9---------|
|---7--9--10--|--------------|----------------|---------10--9--|
|-------------|--------------|----------------|----------------|

|-------------|--------------|-------------|---------------|
|-------------|--------------|-------------|---------------|
|-------------|--------------|-------------|---------------|
|-------------|--9-9---------|--7---10-9---|--9---9--------|
|--7--7-9-10--|-------9--10--|-------------|---------9--10-|
|-------------|--------------|-------------|---------------|

|----------------|---------------------|
|----------------|-13--12--10----------|
|----------------|--------------12--11-|
|----------------|---------------------|
|-7--9--10-10----|---------------------|
|----------------|---------------------|
Comments