Dark Tranquillity - The Minds Eye Chords & Tabs

 

The Minds Eye Chords & Tabs

Dark Tranquillity Chords & Tabs

Version: 1 Type: Tab 0 ratings
1 star 2 stars 3 stars 4 stars 5 stars
comments

The Minds Eye Tab

   
The Minds I by Dark Tranquility
===========

 Here's the acoustic part from this 'outro' or whatever it is.
It's not very hard to play but some parts are a bit tricky. I used
normal tuning with this but I don't know what they use on the record.

Timing is 3/4.

  C#m             E               ?      ?       C#m
|---------------|---------------|---------------|---------------|
|---------------|---------------|---------------|---------------|
|-6------6------|-9------9------|-8------9------|-6------6------|
|---6------6----|---6------6----|---6------6----|---6------6----|
|-----7------7--|-----7------7--|-----7------7--|-----7------7--|
|-9-------------|---------------|-7-------------|-9-------------|
[ Tab from: http://www.guitartabs.cc/tabs/d/dark_tranquillity/the_minds_eye_tab.html ]
  A                               B7/F#           C#m
|---------------|---------------|---------------|---------------|
|---------------|-5------5------|-4------4------|---------------|
|-6------6------|---------------|---2------2----|-6------6------|
|---7------7----|---7------7----|-----4------4--|---6------6----|
|-----7------7--|-----7------7--|---------------|-----7------7--|
|-5-------------|-5-------------|-2-------------|-9-------------|

  ?               ?               ?               E
|---------------|--------7------|---------------|---------------|
|-9------9------|-10-----7---10-|-9------7------|-5------5------|
|---6------6----|----8----------|---6------6----|---------------|
|-6---7------7--|-7----9--------|-----7------6--|---6------6----|
|---------------|---------------|---------------|-----7------7--|
|---------------|---------------|---------------|---------------|

  A               B7/F#           C#m    ?        C#m
|---------------|---------------|---------------|---------------|
|---------------|-4------4------|---------------|---------------|
|-6------6------|---2------2----|-6------8------|-6------6------|
|---7------7----|-----4------4--|---6------6----|---6------6----|
|-----7------7--|---------------|-----7------7--|-----7------7--|
|-5-------------|-2-------------|-9------7------|-9-------------|
Comments