Dark Moor - Maid Of Orleans Chords & Tabs

 

Maid Of Orleans Chords & Tabs

Dark Moor Chords & Tabs

Version: 1 Type: Tab 0 ratings
1 star 2 stars 3 stars 4 stars 5 stars
comments

Maid Of Orleans Tab

                                 MAID OF ORLEANS
                            As recorded by Dark Moor
                    (From Album THE HALL OF THE OLDEN DREAMS)

Transcribed by Sami Rikala

Gtr I 1/2 Step Down




||--0-7-0-8-0-7-----------0-7-0-8-0-7--10p8p7-----0-7-0-8-0-7---------------|
||o--------------10p8p7h8---------------------10--------------10-7-8---7-8--|
||-------------------------------------------------------------------9------|
||--------------------------------------------------------------------------|
||o-------------------------------------------------------------------------|
||--------------------------------------------------------------------------|


|-------------|
|-10-7-8-10--o|
|-------------|
|-------------|
|------------o|
|-------------|


||------------------------------------------------------------------------------|
||o-0-7-0-8-0-7---------0-7-0-8-0-7-10p8p7h8--0-7-0-8-0-7----------------------o|
||--------------9p7p6h7-----------------------------------9-6-7----6-7-9-6-7-9--|
||---------------------------------------------------------------9--------------|
||o----------------------------------------------------------------------------o|
||------------------------------------------------------------------------------|



|------------------------------------------------------------------------|
|------------------------------------------------------------------------|
|------------------------------------------------------------------------|
|-----------------------5-----5-----5-------------------7-----7-----7----|
|-------2-----2-----2---3-3-3-3-3-3-3---5-----5-----5---5-5-5-5-5-5-5----|
|-------0-0-0-0-0-0-0-------------------3-3-3-3-3-3-3--------------------|



|--------------------------------------------------|
|-------------------------------------------------o|
|-----------------------------------------------7--|
|-----------------5-----5-----5--2-----2-----2--7--|
|-2-----2-----2---3-3-3-3-3-3-3--0-0-0-0-0-0-0--5-o|
|-0-0-0-0-0-0-0------------------------------------|


Verse 1

Tremolo pickin'
||---------------------------------------|
||o-------------------------------------o|
||---------------------------------------|
||---------------------------------------|
||o-7-10-9-10-7-10-9-10-6-9-7-9-6-9-7-9-o|
||---------------------------------------|



||--------------------------------------------------------------------------------|
||o-------------------------------------------------------------------------------|
||--------------------------------------------------------------------------------|
||--------------------------------------------------------------------------------|
||o--14-10-10-14-10-10-14-10-14-10-10-14-10-10-14-10-14-9-9-14-9-9-14-9-14-9-9-14-|
||--------------------------------------------------------------------------------|



|-----------|
|----------o|
|-----------|
|-----------|
|-9-9-14-9-o|
|-----------|

[ Tab from: http://www.guitartabs.cc/tabs/d/dark_moor/maid_of_orleans_tab.html ]
||-----------------------------------------------------------------------------|
||o-12h13p12p10-12-----------10h12p10p8-10----------12h13p12p10-12-------------|
||-----------------9-11-12-9---------------7-9-11-7----------------9-11-12-9---|
||-----------------------------------------------------------------------------|
||o----------------------------------------------------------------------------|
||-----------------------------------------------------------------------------|


|-------------------------||-||----------------||-||------------||-||---------------||
|------------------------o||-||o--------------o||-||o----------o||-||o-------------o||
|-------9-12-11----11-14--||-||----------------||-||------------||-||---------------||
|----10---------12--------||-||---Verse2-------||-||----Chorus--||-||---Intro-------||
|-10---------------------o||-||o--------------o||-||o----------o||-||o-------------o||
|-------------------------||-||----------------||-||------------||-||---------------||


||-----------------------------||-||-----------------||-||---------------||
||o---------------------------o||-||o---------------o||-||o-------------o||
||--9--5--7--------------------||-||-----------------||-||---------------||
||--9--5--7-------------5---4--||-||----Chorus-------||-||---Interlude---||
||o-7--3--5-----5-----2-3-3-2-o||-||o---------------o||-||o-------------o||
||----------3-3-3-2-2-0---1----||-||-----------------||-||---------------||


||--14h15p14p12-14-------------12h14p12p10-12-------------14h15p14p12-14----------------------|
||o----------------12-14-15-12----------------10-12-14-10----------------12-14-15-12-12----12-|
||--------------------------------------------------------------------------------------12----|
||--------------------------------------------------------------------------------------------|
||o-------------------------------------------------------------------------------------------|
||--------------------------------------------------------------------------------------------|


|-------------------|
|-15--14----14-17--o|
|--------14---------|
|-------------------|
|------------------o|
|-------------------|


Tapping part

||------------------------------------------------------------------------------------------|
||o--T----------T----------T----------T----------T----------T----------T----------T---------|
||--16-9h11h12-16-9h11h12-17-9h11h12-16-9h11h12-17-9h11h12-17-9h11h12-19-9h11h12-17-9h11h12-|
||------------------------------------------------------------------------------------------|
||o-----------------------------------------------------------------------------------------|
||------------------------------------------------------------------------------------------|



|------------------------------------------------------------------------------------------|
|-T----------T----------T-----------T----------T----------T----------T----------T---------o|
|16-9h11h12-16-9h11h12-17-9h11h12--16-9h11h12-21-9h11h12-21-9h11h12-17-9h11h12-17-9h11h12--|
|------------------------------------------------------------------------------------------|
|-----------------------------------------------------------------------------------------o|
|------------------------------------------------------------------------------------------|


||-----------------------------------------------------------------------------|
||o----10-12-13-12-10----------10-12-10---------------10----------------------o|
||--12----------------12-11-12----------12-11-9-11-12----12-11-9-8-9-11-12-----|
||-----------------------------------------------------------------------------|
||o---------------------------------------------------------------------------o|
||-----------------------------------------------------------------------------|

...and the rest you already know.

if you have comments mailto: sami.rikala@luukku.com
Comments