Dark Moor - Beyond The Fire Chords & Tabs

 

Beyond The Fire Chords & Tabs

Dark Moor Chords & Tabs

Version: 1 Type: Tab 0 ratings
1 star 2 stars 3 stars 4 stars 5 stars
comments

Beyond The Fire Tab

   
				BEYOND THE FIRE
                            As recorded by Dark Moor
               	     (From Album THE HALL OF THE OLDEN DREAMS)


Transcribed by Sami Rikala




Gtr 1/2 Step Down

|-14p9----------------9-7h10p7-------------7-9-------------------------------------------|
|------10----------10----------9---------9-----10-12-9-10----9---------------------9-12--|
|---------11----11---------------10-7-10------------------11---10-11------------10-------|
|------------11------------------------------------------------------11-12-9-11----------|
|----------------------------------------------------------------------------------------|
|----------------------------------------------------------------------------------------|


|-14p9----------------9-7h10p7-------------7-9-------9-----------------------9-10-12-14---|
|------10----------10----------9---------9-----12-10---12-10-9-------9-10-12--------------|
|---------11----11---------------10-7-10-----------------------10-11----------------------|
|------------11---------------------------------------------------------------------------|
|-----------------------------------------------------------------------------------------|
|-----------------------------------------------------------------------------------------|


|-19p14----------14-12h15p12--------------12-14-------------------------------------------|
|------15------15-----------14----------14-----15-17-14-15--14--------------------14-17---|
|--------16--16----------------15-12-15-------------------16---15-16------------15--------|
|----------16--------------------------------------------------------16-17-14-16----------|
|-----------------------------------------------------------------------------------------|
|-----------------------------------------------------------------------------------------|


|-19p14----------14-12h15p12------------12-14p9------------9-7h10p7-----------7--|
|------15------15-----------14--------14-------10-------10---------9--------9----|
|--------16--16---------------15-12-15------------11--11------------10-7-10------|
|----------16---------------------------------------11---------------------------|
|--------------------------------------------------------------------------------|
|--------------------------------------------------------------------------------|


|-19--17-17-17-16-14-17-16-14-16----|
|-----------------------------------|
|-----------------------------------|
|-----------------------------------|
|-----------------------------------|
|-----------------------------------|


|-----------------------------------------------------------------------|
|-----------------------------------------------------------------------|
|-------------------------------------------------9---------9-----------|
|-------------------------9---------9-------------7-7-7-7-7-7-7-7-7-7-7-|
|-4---------4-------------7-7-7-7-7-7-7-7-7-7-7-7-----------------------|
|-2-2-2-2-2-2-2-2-2-2-2-2-----------------------------------------------|


|---------------------------------------------------------------------------------------------|
|---------------------------------------------------------------------------------------------|
|---------------------------------------------------------------------------------------------|
|-6---------6-------------4-----------------------------------------------------------------6-|
|-4-4-4-4-4-4-4-4-4-4-4-4-2-2-2-2-2-2-2-2-2-2-2-2-2-2-2-2-2-2-2-2-2-2-2-2-2-2-2-2-2-2-2-2-2-4-|
|---------------------------------------------------------------------------------------------|


|-------------------------------------------------------------------------------------------|
|-------------------------------------------------------------------------------------------|
|-------------------------------------------------------------------------------------------|
|----------------------------------------------------------------------------9-----9-----9--|
|4-4-4-4-4-4-4-4-4-4-4-4-4-4-4-4-4-4-4-4-4-4-4-4-4-4-4-4-4-4-4-4-----4-----4-7-7-7-7-7-7-7--|
|--------------------------------------------------------------2-2-2-2-2-2-2----------------|


|-------------------------------------------------------------------------------------|
|-------------------------------------------------------------------------------------|
|-------------------------------------------------------------------------------------|
|---------------6-----6-----6-4-------------------------------------------------------|
|-7-----7-----7-4-4-4-4-4-4-4-2-2-2-2-2-2-2-2-2-2-2-2-2-2-2-2-2-2-2-2-2-2-2-2-2-2-2-2-|
|-5-5-5-5-5-5-5-----------------------------------------------------------------------|


|-----------------------------------------------------------------------------------|
|-----------------------------------------------------------------------------------|
|-----------------------------------------------------------------------------------|
|-----------6-----------------------------------------------------------------------|
|-2-2-2-2-2-4-4-4-4-4-4-4-4-4-4-4-4-4-4-4-4-4-4-4-4-4-4-4-4-4-4-4-4-4-4-4-4-4-4-----|
|-----------------------------------------------------------------------------------|



||-----------------------------------------------------------------||
||o---------------------------------------------------------------o||
||-----------------------------------------------------------------||
||------6-4p2---------7-7-7-4p2-------------7-----7-----9-9-12-----||
||o-4-4-4-----5p4p2p0-5-5-5-----5p4p2p0-4-4-5-5-5-5-5-5-7-7-10----o||
||--2-2---------------------------------2-2------------------------||



     D5				   F#				  B5
|-----------------------------------------------------------------------|
|-----------------------------------------------------------------------|
|-----------------------------------------------------------------4-4-4-|
|---------------------------------4-4-4-4-4-4-4-4-4-4-4-4-4-4-4-4-------|
|-5-5-5-5-5-5-5-5-5-5-5-5-5-5-5-5---------------------------------------|
|-----------------------------------------------------------------------|

								 D5
|-------------------------------------------------------5-5-5-5---------|
|-----------------------------------------------5-5-5-5-----------------|
|-4-4-4-4-4-4-4-4-4-4-4-4-4-4-4-6-6-6-6-7-7-7-7-------------------------|
|---------------------------------------------------------------7-7-7-7-|
|-----------------------------------------------------------------------|
|-----------------------------------------------------------------------|

		  F#				  E5
|-----------------------------------------------------------------------------------|
|-----------------------------------------------------------------------------------|
|--------------------------------------------------4-4-4-4-4-4-4-4-4-4-4-4-4/9~-----|
|-6-6-6-6-4-4-4-4---------4-4-4-4-6-6-6-6-7-7-7-7-----------------------------------|
|-----------------7-7-7-7-----------------------------------------------------------|
|-----------------------------------------------------------------------------------|


|-----------------------------------------------------------------------|
|-----------------------------------------------------------------------|
|-7-----------------------------6-----------------------------9---------|
|-7-----------------------------7-----------------------------9---------|
|-5-5-5-5-5-5-5-5-5-5-5-5-5-5-5-4-4-4-4-4-4-4-4-4-4-4-4-4-4-4-7-7-7-7-7-|
|-----------------------------------------------------------------------|


|-----------------------------------------------------------------------|
|-----------------------------------------------------------------------|
|---------------------8-----------------------------7-------------------|
|---------------------9-----------------------------7-------------------|
|-7-7-7-7-7-7-7-7-7-7-6-6-6-6-6-6-6-6-6-6-6-6-6-6-6-5-5-5-5-5-5-5-5-5-5-|
|-----------------------------------------------------------------------|

[ Tab from: http://www.guitartabs.cc/tabs/d/dark_moor/beyond_the_fire_tab.html ]
|----------------------------------------------|
|----------------------------------------------|
|----------------------------------------------|
|----------------------------------------------|
|-5-5-5-5-5-7-----------------------------5----|
|-----------4-4-4-4-4-4-4-4-4-4-4-4-4-4-4-3----|


|-----------------------------------------------------------------------|
|-----------------------------------------------------------------------|
|-6-----------------------------7-----------------------------4---------|
|-4-4-4-4-4-4-4-4-4-4-4-4-4-4-4-4-4-4-4-4-4-4-4-4-4-4-4-4-4-4-2-2-2-2-2-|
|-----------------------------------------------------------------------|
|-----------------------------------------------------------------------|


|-----------------------------------------------------------------------|
|-----------------------------------------------------------------------|
|-----------------------------------------------------------------------|
|-2-2-2-2-2-2-2-2-2-2-2-2-2---------------------------------------------|
|-------------------------4-4-4-4-4-4-4-4-4-4-4-4-4-4-4-5-5-5-5-5-5-5-5-|
|-----------------------------------------------------------------------|


|-----------------------------------------------------------------------|
|-----------------------------------------------------------------------|
|-----------------------------------------------------------------------|
|-----------------------------------------------------------------------|
|-5-5-5-5-4-4-4-4-3-3-3-3-3-3-3-3-3-3-3---------4-4-4-4-4-4-4-4-4-4-4-4-|
|---------------------------------------4-4-4-4-------------------------|


|-----------------------------------------------------------------------|
|-----------------------------------------------------------------------|
|-6-----------------------------7-----------------------------9---------|
|-4-4-4-4-4-4-4-4-4-4-4-4-4-4-4-4-4-4-4-4-4-4-4-4-4-4-4-4-4-4-6-6-6-6-6-|
|-----------------------------------------------------------------------|
|-----------------------------------------------------------------------|


|------------------------------------------------------------------------|
|------------------------------------------------------------------------|
|---------------------9-----------------------------11-------------------|
|-6-6-6-6-6-6-6-6-6-6-7-7-7-7-7-7-7-7-7-7-7-7-7-7-7--9-9-9-9-9-9-9-9-9-9-|
|------------------------------------------------------------------------|
|------------------------------------------------------------------------|


|-----------------------------------------------|
|-----------------------------------------------|
|-----------------------------------------------|
|-9-9-9-9-9-11-----------------------------9----|
|------------9-9-9-9-9-9-9-9-9-9-9-9-9-9-9-7----|
|-----------------------------------------------|




Verse 2 etc.






||-----9-10-9-------------------9-10-9----------------9-10-12S17-12--------------9-10S14-9-|
||o-----------12-10-9-10-9-------------12-10-9-10-12----------------15-14-12--10-----------|
||--11-----------------------11------------------------------------------------------------|
||-----------------------------------------------------------------------------------------|
||o----------------------------------------------------------------------------------------|
||-----------------------------------------------------------------------------------------|


|-------9--10h12p10p9-10p9---------------------------------------------------||
|-12-10--------------------12-10-9h10p9----9-------9------------------------o||
|---------------------------------------11---10-11---11~--10~----------------||
|-------------------------------------------------------------11~--9~--7~----||
|---------------------------------------------------------------------------o||
|----------------------------------------------------------------------------||


||----------------------------------------------------------------------|
||o---------------------------------7-7-----9-9-------------------------|
||--------------------------------------6-6-----6-6---------------------|
||------------------------------------------------------------------7---|
||o-----------------4-------------4-----------------5-5-5-5-5-5-5-5-5-5-|
||--2-2-2-2-2-2-2-2-2-2-2-2-2-2-2-2-------------------------------------|


|-----------------------------------------------------------------------------|
|-----------------------------------------------------------------------------|
|-----------7-7-----9-9-------------------------------------------------------|
|---------7-----7-7-----7-7-----------------4------------4-4------<7>-<7>-----|
|-5-5-5-5-5-----------------2-2-2-2-2-2-2-2-2---------5------4-4----------4-4-|
|---------------------------------------------3-3-3-3-3-----------------------|


|-----------------------------------------------------||
|---------------------------------7-7-----9-9--------o||
|-------------------------------------6-6-----6-6-----||
|-----------------------------------------------------||
|-----------------4-------------4--------------------o||
|-2-2-2-2-2-2-2-2-2-2-2-2-2-2-2-2---------------------||



Chorus



|------------------------------------------------------------------------|
|------------------------------------------------------------------------|
|-9-----------------------------10-----------------------------7---------|
|-7-7-7-7-7-7-7-7-7-7-7-7-7-7-7--7-7-7-7-7-7-7-7-7-7-7-7-7-7-7-5-5-5-5-5-|
|------------------------------------------------------------------------|
|------------------------------------------------------------------------|


|-----------------------------------------------------------------------|
|-----------------------------------------------------------------------|
|-----------------------------------------------------------------------|
|-5-5-5-5-5-5-5-5-5-5-5-------------------------------------------------|
|---------------------7-7-7-7-7-7-7-7-7-7-7-7-7-7-7-8-8-8-8-8-8-8-8-8-8-|
|-----------------------------------------------------------------------|


|----------------------------------------------------------------------|
|----------------------------------------------------------------------|
|----------------------------------------------------------------------|
|----------------------------------------------------------------------|
|-8-8-7-7-7-7-6-6-6-6-6-6-6-6-6-6-6-6---------7-7-7-7-7-7-7-7-7-7-7-7--|
|-------------------------------------7-7-7-7--------------------------|


|-------------------------------------------------------------------------|
|-------------------------------------------------------------------------|
|-9-----------------------------10-----------------------------12---------|
|-7-7-7-7-7-7-7-7-7-7-7-7-7-7-7--7-7-7-7-7-7-7-7-7-7-7-7-7-7-7--9-9-9-9-9-|
|-------------------------------------------------------------------------|
|-------------------------------------------------------------------------|


|---------------------------------------------------------------------------------|
|---------------------------------------------------------------------------------|
|---------------------12-------------------------------------------14-------------|
|-9-9-9-9-9-9-9-9-9-9-10-10-10-10-10-10-10-10-10-10-10-10-10-10-10-12-12-12-12-12-|
|---------------------------------------------------------------------------------|
|---------------------------------------------------------------------------------|


|----------------------------------------------------------------------------------|
|----------------------------------------------------------------------------------|
|----------------------------------------------------------------------------------|
|12-12-12-12-12--12-12-12-12-12-14-------------------------------------------12----|
|-------------------------------12-12-12-12-12-12-12-12-12-12-12-12-12-12-12-10----|
|----------------------------------------------------------------------------------|


if you have comments mailto: sami.rikala@luukku.com
Comments