Dark Funeral - Remember The Fallen Chords & Tabs

 

Remember The Fallen Chords & Tabs

Dark Funeral Chords & Tabs

Version: 1 Type: Tab 0 ratings
1 star 2 stars 3 stars 4 stars 5 stars
comments

Remember The Fallen Tab

   
Band:Dark Funeral
Album:Teach Children To Worship Satan
Song:Remember The Fallen
Copyright (c)  House of Kicks (1999)
Version 1.0 -28/07/2005

Transcribed By:Vibrião Cerebrate
Email:dead_fleshh@hotmail.com


Tuning E A D G B E

Part I
                        3x                   2x
||----------------------|--------------------|||
||----------------------|--------------------|||
||----------------------|--------------------|||
||----------------------|--------------------|||
||-2------3p2---2~----0-|-3------3p2---2~----|||
||-0----------3-----3---|-1----------3-----0-|||


Part II
repeat:4x
||---------------------------------------------------------|||
||---------------------------------------------------------|||
||---------------------------------------------------------|||
||---------------------------------------------------------|||
||-2------2------2------------0-2------2------3-3-3--5-5-5-|||
||-0--0-0-0--0-0-0--0-0-3~--0------0-0-0--0-0-1-1-1--3-3-3-|||
      * *    * *    * *     *      * *    * * * *    * *

Part III
repeat:2x
||-------------------------------------------------------|||
||-------------------------------------------------------|||
||-------------------------------------------------------|||
||-------------------------7-----------------------------|||
||-4------4------4------4--5--7------7------5-5-5--7-7-7-|||
||-2--2-2-2--2-2-2--2-2-2-----5--5-5-5--5-5-3-3-3--5-5-5-|||
      * *    * *    * *          * *    * * * *    * *

Part II
repeat:2x

Part III
repeat:2x (solo rhythm)

[ Tab from: http://www.guitartabs.cc/tabs/d/dark_funeral/remember_the_fallen_tab.html ]
Part IV
repeat:2x
||---------------------------------------------------------|
||---------------------------------------------------------|
||---------------------------------------------------------|
||---------------------------------------------------------|
||-2--222-2--222-2--222-2--222-3--333-3--333-2--222-4--444-|
||-0--000-0--000-0--000-0--000-1--111-1--111-3--333-5--555-|
   *  *** *  *** *  *** *  *** *  *** *  *** *  *** *  ***

||---------------------------------------------------------|||
||---------------------------------------------------------|||
||---------------------------------------------------------|||
||---------------------------------------------------------|||
||-2--222-2--222-2--222-2--222-3--333-3--333-4--444-2--222-|||
||-0--000-0--000-0--000-0--000-1--111-1--111-5--555-3--333-|||
   *  *** *  *** *  *** *  *** *  *** *  *** *  *** *  ***

Part V
repeat:2x                               [1     ] [2     ]
||--------------------------------------|------|||------|||
||--------------------------------------|------|||------|||
||--------------------------------------|------|||------|||
||--------------------------------------|-4--5-|||-5--4-|||
||-2------------------3-----------------|-2--3-|||-3--2-|||
||-0------------------1-----------------|------|||------|||


Fill
||----------------------------------------------------------------|||
||----------------------------------------------------------------|||
||----------------------------------------------------------------|||
||----------------------------------------------------------------|||
||-2--------------------------------------------------------------|||
||-0--------------------------------------------------------------|||


Part II
repeat:4x

Part III
repeat:2x

Part II
repeat:2x

Part III
repeat:2x (solo rhythm)

Part IV
repeat:2x

Part V
repeat:2x


End
||-----------------------------|---------------------------|||
||-----------------------------|---------------------------|||
||-----------------------------|-2"-[                ]-----|||
||------------5--4-------------|-2"-[ 'til the end!!!]-----|||
||-2----------3--2--2----------|-0"-[                ]-----|||
||-0----------------0----------|---------------------------|||


END             "I am death of all flesh...."

"=tremolo picking
~=vibrato
p=pull-off
h=hammer-on
Comments