Dark Funeral - Call From The Grave Chords & Tabs

 

Call From The Grave Chords & Tabs

Dark Funeral Chords & Tabs

Version: 1 Type: Tab 0 ratings
1 star 2 stars 3 stars 4 stars 5 stars
comments

Call From The Grave Tab

   
                                 DARK FUNERAL - CALL FROM THE GRAVE

                                       Cover from Bathory

                                   From the album In The Sign...

                                          Version 1.0









.  - palm mute                      /  - slide up to

\  - slide down to                  ~  - vibrato

"  - tremelo picking                () - ghost note

p  - pull off                       h  - hammer-on

tr - trill notes                    fb - full bend (1step)







Transcription Done By: Nicolau Przybyszewski



For Questions, Comments, Corrections, or Newest Version;

          please contact Nicolau at perkele@lettera.net



Hi! This is my very first tab!!! I hope you will enjoy playing this funny, dark cover from Bathory, performed by DARK FUNERAL!!! 

Listen carefully the song to catch the rhythm, itīs easy!! Perkele!!!



Tune to E (E,A,D,G,B,E)





riff 1                                                                      

E-----------------------------------------------------------------------

B-----------------------------------------------------------------------

G-----------------------------------------------------------------------

D-----4--4--4/8--8--7--7--7--7--6--6--4---------------------------------

A-----4--4--4/8--8--7--7--7--7--6--6--4---------------------------------

E-----2--2--2/6--6--5--5--5--5--4--4--2---------------------------------

                                                                                



riff 2                                                                         

E-----------------------------------------------------------------------

B-----------------------------------------------------------------------

G-----------------------------------------------------------------------

D-----4--4--4--4--4--5--5--5--5--5--4--4--4--4--4--3--3--3--3--3--------

A-----4--4--4--4--4--5--5--5--5--5--4--4--4--4--4--3--3--3--3--3--------

E-----2--2--2--2--2--3--3--3--3--3--2--2--2--2--2--1--1--1--1--1--------
[ Tab from: http://www.guitartabs.cc/tabs/d/dark_funeral/call_from_the_grave_tab.html ]
                                                                                



riff 3                                                                        

E-----------------------------------------------------------------------

B-----------------------------------------------------------------------

G-----------------------------------------------------------------------

D-----4--3--3--3--4--3--3--3--4--3--3--3--4--3--------------------------

A-----4--3--3--3--4--3--3--3--4--3--3--3--4--3--------------------------

E-----2--1--1--1--2--1--1--1--2--1--1--1--2--1--------------------------

Riff 4                                                                                                                                                                

E------------------------------------------------------------------------

B------------------------------------------------------------------------

G------------------------------------------------------------------------

D----8--8--8--8--8/6--6--8--8--8--8--5--5--5--5/3--3--3--4--4--4---------

A----8--8--8--8--8/6--6--8--8--8--8--5--5--5--5/3--3--3--4--4--4---------

E----6--6--6--6--6/4--4--6--6--6--6--3--3--3--3/1--1--1--2--2--2---------

                                                                            

Riff 5

                                                                                

E------------------------------------------------------------------------

B------------------------------------------------------------------------

G------------------------------------------------------------------------

D----4--4--4/7--7--7-----------------------------------------------------

A----4--4--4/7--7--7-----------------------------------------------------

E----2--2--2/5--5--5-----------------------------------------------------

                                                                            

                                                                                                                                             

Song structure:



RIFF1 * 4

RIFF2 * 6

RIFF1 * 4

RIFF2 * 6

RIFF3 * 8

RIFF4 * 4

RIFF5 * 16

RIFF1 * 4

RIFF3 * 8
Comments