Dariush - Be Man Nagoo Dooset Daram Chords & Tabs

 

Be Man Nagoo Dooset Daram Chords & Tabs

Dariush Chords & Tabs

Version: 1 Type: Tab 0 ratings
1 star 2 stars 3 stars 4 stars 5 stars
comments

Be Man Nagoo Dooset Daram Tab

                    be man nagoo dooset daram 

Rythm : slow rock (6/8)

singer : daryoosh
song   :be man nagoo dooset daram
album  :be man nagoo dooset daram



|---22-0-0---|----22-0-0---|----22-0-0---|-0-----0-----|  --music--
|----------3-|-0---------3-|-0---------3-|----31---3-1-|
|------------|-------------|-------------|-------------|
|------------|-------------|-------------|-------------|
|------------|-------------|-------------|-------------|
|------------|-------------|-------------|-------------|



|---22-0-0---|----22-0-0---|----22-0-0---|-0-----0-----|  --music--
|-0--------3-|-0---------3-|-0---------3-|----31---3-1-|
|------------|-------------|-------------|-------------|
|------------|-------------|-------------|-------------|
|------------|-------------|-------------|-------------|
|------------|-------------|-------------|-------------|




|--33-3--3---|-3--23-2-2-0-|-0------0---|------------|  --music-- 2x
|------------|-------------|---01-3-----|-3-1--0-----|
|------------|-------------|------------|------------|
|------------|-------------|------------|------------|
|------------|-------------|------------|------------|
|------------|-------------|------------|------------|




|------0-2---|-2-2-2-2-3---|------0-2-2-|-2----2-3---|hala ke kare to shode...
|----3-------|-------------|----3-------|------------|
|------------|-------------|------------|------------|
|------------|-------------|------------|------------|
|------------|-------------|------------|------------|
|------------|-------------|------------|------------|



|------0-2---|-2-2-2-2-3---|------0-2-2-|-2----2-3---|hala ke dele to shode...
|----3-------|-------------|----3-------|------------|
|------------|-------------|------------|------------|
|------------|-------------|------------|------------|
|------------|-------------|------------|------------|
|------------|-------------|------------|------------|


 

|--33-3--3---|-3-3-5-2-0---|--------0----|-------------|be man nagoo dooset daram...
|------------|-------------|---01-3------|-3-1--0------|
|------------|-------------|-------------|-------------|
|------------|-------------|-------------|-------------|
|------------|-------------|-------------|-------------|
|------------|-------------|-------------|-------------|



|--33-3--3---|-3-3-5-2-0---|--------0----|-------------|nagoo faghat toro daram...
|------------|-------------|---01-3------|-3-1--0------|
|------------|-------------|-------------|-------------|
|------------|-------------|-------------|-------------|
|------------|-------------|-------------|-------------|
|------------|-------------|-------------|-------------|


[ Tab from: http://www.guitartabs.cc/tabs/d/dariush/be_man_nagoo_dooset_daram_tab.html ]
|----7-7-7---|-7--9-7------|-----10-9---|-7--7---7---|to ba in charb zabooni...
|------------|--------10---|---10-------|------10----|
|------------|-------------|------------|------------|
|------------|-------------|------------|------------|
|------------|-------------|------------|------------|
|------------|-------------|------------|------------|



|----7-7-7---|-7--9-7------|-----10-9---|-7--7---7---|mikhahi goolam bezani...
|------------|--------10---|---10-------|------10----|
|------------|-------------|------------|------------|
|------------|-------------|------------|------------|
|------------|-------------|------------|------------|
|------------|-------------|------------|------------|




|--33-3--3---|-3-3-5-2-0---|--------0----|-------------|be man nagoo dooset daram...
|------------|-------------|---01-3------|-3-1--0------|
|------------|-------------|-------------|-------------|
|------------|-------------|-------------|-------------|
|------------|-------------|-------------|-------------|
|------------|-------------|-------------|-------------|



|--33-3--3---|-3-3-5-2-0---|--------0----|-------------|nagoo faghat toro daram...
|------------|-------------|---01-3------|-3-1--0------|
|------------|-------------|-------------|-------------|
|------------|-------------|-------------|-------------|
|------------|-------------|-------------|-------------|
|------------|-------------|-------------|-------------|




|----7-7-7---|-7--9-7------|-----10-9---|-7--7---7---|to ba dele shekasteam...
|------------|--------10---|---10-------|------10----|
|------------|-------------|------------|------------|
|------------|-------------|------------|------------|
|------------|-------------|------------|------------|
|------------|-------------|------------|------------|



|----7-7-7---|-7--9-7------|-----10-9---|-7--7---7---|to age doostam nadari...
|------------|--------10---|---10-------|------10----|
|------------|-------------|------------|------------|
|------------|-------------|------------|------------|
|------------|-------------|------------|------------|
|------------|-------------|------------|------------|


|--33-3--3---|-3-3-5-2-0---|--------0----|-------------|be man nagoo dooset daram...
|------------|-------------|---01-3------|-3-1--0------|
|------------|-------------|-------------|-------------|
|------------|-------------|-------------|-------------|
|------------|-------------|-------------|-------------|
|------------|-------------|-------------|-------------|



|--33-3--3---|-3-3-5-2-0---|--------0----|-------------|nagoo faghat toro daram...
|------------|-------------|---01-3------|-3-1--0------|
|------------|-------------|-------------|-------------|
|------------|-------------|-------------|-------------|
|------------|-------------|-------------|-------------|
|------------|-------------|-------------|-------------|

------------------------------------------
omidvaram khoshetoon biad !
siavash.
e-mail : a9d7g5@yahoo.com
Comments