Daredevils - Hate You Chords & Tabs

 

Hate You Chords & Tabs

Daredevils Chords & Tabs

Version: 1 Type: Tab 0 ratings
1 star 2 stars 3 stars 4 stars 5 stars
comments

Hate You Tab

*********************************-****-****-****-****-****-****-****-****-***
          Hate You - DareDevils
*********************************-****-****-****-****-****-****-****-****-***

Revised 2002 By:Ibecookin@hotmail.com
(1rst verson By:SBJAGSTANG@AOL)

INTRO guitar 1
e|--------------------------------------------------------------------|
B|--------------------------------------------------------------------|
G|--------------------------------------------------------------------|
D|--0--2--4b--2--2--0--2--4b--2--0--0--2--4b--2-----5--7--5-----------|  x4
A|---------------------------------------------------3----------------|
E|--------------------------------------------------------------------|

VERSE (intro for guitar 2) 
e|--------------------------------------------------------------------|
B|--------------------------------------------------------------------|
G|--9-9-9-9-9-9-9-9--5-5-5-5-5-5-5-5--4-4-4-4-4-4-4-4--5-5-5-5--------|
D|--9-9-9-9-9-9-9-9--5-5-5-5-5-5-5-5--4-4-4-4-4-4-4-4--5-5-5-5--------|
A|--7-7-7-7-7-7-7-7--3-3-3-3-3-3-3-3--2-2-2-2-2-2-2-2--3-3-3-3--------|
E|--------------------------------------------------------------------|
    P.M.........................................................>

e|--------------------------------------------------------------------|
B|--------------------------------------------------------------------|x2
G|--------------------------------------------------------------------|
D|--7-7-7-7-----------------------------------------------------------|
A|--5-5-5-5-----------------------------------------------------------|
E|--------------------------------------------------------------------|
    P.M.........................................................>
[ Tab from: http://www.guitartabs.cc/tabs/d/daredevils/hate_you_tab.html ]
CHORUS (guitar 1 and 2)
e|-----------------------------------------------------------------------|
B|-----------------------------------------------------------------------|
G|--9-9-9--5-5--7-7--9-9-9--5-5--7-7--9-9-9--5-5--7-7--5-5-5-5--7-7-7-7--|
D|--9-9-9--5-5--7-7--9-9-9--5-5--7-7--9-9-9--5-5--7-7--5-5-5-5--7-7-7-7--| x2
A|--7-7-7--3-3--5-5--7-7-7--3-3--5-5--7-7-7--3-3--5-5--3-3-3-3--5-5-5-5--|
E|--------------------------------------------------------------------|

e|--------------------------------------------------------------------|
B|--------------------------------------------------------------------|
G|--------------------------------------------------------------------|
D|--9-9-9-9-9-9-9-9-9-9-9--12-12-12-12-12-12-12-12-12-12-12-12--------|
A|--7-7-7-7-7-7-7-7-7-7-7--10-10-10-10-10-10-10-10-10-10-10-10--------|
E|--------------------------------------------------------------------|


BRIDGE
e|--------------------------------------------------------------------|
B|--------------------------------------------------------------------|
G|--4-4-4---------------4-4-4------------4-4-4------------------------|
D|--2-2-2---------------2-2-2------------2-2-2------------------------|
A|----------2-3-2-3-2----------2-3-2-5----------2-3-2-3-2-------------|
E|--------------------------------------------------------------------|

e|--------------------------------------------------------------------|
B|--------------------------------------------------------------------|
G|--------------------------------------------------------------------|
D|--------------------------------------------------------------------|
A|--7-3-2-3-5---------------------------------------------------------|
E|--------------------------------------------------------------------|

BRIDGE 2 
e|--12-----12---------------------------------------------------------|
B|-----12-----12-9-12-------------------------------------------------|
G|----------------------11-12-11-12-9---------------------------------|
D|--------------------------------------------------------------------|
A|--------------------------------------------------------------------|
E|--------------------------------------------------------------------|
Comments