Daphne Loves Derby - Tennis Court Soundtrack Chords & Tabs

 

Tennis Court Soundtrack Chords & Tabs

Daphne Loves Derby Chords & Tabs

Version: 1 Type: Tab 0 ratings
1 star 2 stars 3 stars 4 stars 5 stars
comments

Tennis Court Soundtrack Tab

   
Tennis Court Soundtrack
Daphne Loves Derby
Standard Tuning
www.purevolume.com/daphnelovesderby

This song is really played with two guitars, but I've tabbed it so you can play it with one.
 
Intro
E-X-------------X-----X-X--X------X-------------X~|
B-2h3p2-3-3--3xx2h3p2-0-X--X------2h3p2-3-3--3xx3~|
G-2-----2-2--2xx2-----2-2--2h4p2--2-----2-2--2xx2~|
D-0-----0-0--0xx0-----0-0--0------0-----0-0--0xx0~|
A-0-----0-2--2xxX-----X-X--X------0-----0-2--2xxX~|
E-X-------------2-----2-3--3------X-------------3~|

Verse
E-X-X-X--X--X-X-X--X--X-X-X--X--X-X-X--X---|
B-3-3-3--3xx3-3-3--3xx3-3-3--3xx3-3-3--3xx-|
G-2-2-2--2xx2-2-2--2xx2-2-2--2xx2-2-2--2xx-|
D-0-0-0--0xx0-0-0--0xx0-0-0--0xx0-0-0--0xx-|
A-0-0-2--2xxX-X-X--Xxx0-0-2--2xxX-X-X--Xxx-|
E-X-X-X--X--2-2-3--3--X-X-X--X--3-3-3--3---|
     T         T         T         T

Verse(second half)
E-X-------------X-----X-X--X------X-------------X~|
B-2h3p2-3-3--3xx2h3p2-0-X--X------2h3p2-3-3--3xx3~|
G-2-----2-2--2xx2-----2-2--2h4p2--2-----2-2--2xx2~|
D-0-----0-0--0xx0-----0-0--0------0-----0-0--0xx0~|
A-0-----0-2--2xxX-----X-X--X------0-----0-2--2xxX~|
E-X-------------2-----2-3--3------X-------------3~|

First Chorus
E-0-0-0-0-0-0-0--X-X-X-X-X-X-X--|
B-2-2-2-2-2-2-2xx3-3-3-3-3-3-3xx|
G-2-2-2-2-2-2-2xx2-2-2-2-2-2-2xx|
D-0-0-0-0-0-0-0xx0-0-0-0-0-0-0xx| repeat 4 times...then
A-0-0-0-0-0-0-0xx0-0-0-0-0-0-0xx|
E-3-3-3-3-3-3-3--X-X-X-X-X-X-X--|

E-X-X-X-X-X-X-X-X--0~-5-5-5-5-5-5-5x-x-x-|
B-2-2-2-2-2-2-2-2xx3~--3-3-3-3-3-3-x-x-x-|
G-2-2-2-2-2-2-2-2xx2~--------------x-x-x-|
D-0-0-0-0-0-0-0-0xx0~--------------x-x-x-|
A-X-X-X-X-X-X-X-XxxX---------------x-x-x-|
E-3-3-3-3-3-3-3-3--X---------------x-x-x-|

Bridge
E-0-0-0-0-0-0-0--X-X-X-X-X-X-X--|
B-2-2-2-2-2-2-2xx3-3-3-3-3-3-3xx|
G-2-2-2-2-2-2-2xx2-2-2-2-2-2-2xx|
D-0-0-0-0-0-0-0xx0-0-0-0-0-0-0xx| repeat 3 times...then
A-0-0-0-0-0-0-0xx0-0-0-0-0-0-0xx|
E-3-3-3-3-3-3-3--X-X-X-X-X-X-X--|
[ Tab from: http://www.guitartabs.cc/tabs/d/daphne_loves_derby/tennis_court_soundtrack_tab.html ]
E-X-X-X-X-X-X-X--X-X-X-X-X-X-X-X-X-|
B-3-3-3-3-3-3-3xx3-3-3-3-3-3-3-3-3-|
G-2-2-2-2-2-2-2xx2-2-2-2-2-2-2-2-2-|
D-0-0-0-0-0-0-0xx0-0-0-0-0-0-0-0-0-|
A-2-2-2-2-2-2-2xxX-X-X-X-X-X-X-X-X-|
E-X-X-X-X-X-X-X--3-3-3-3-3-3-3-3-3-|

Second Chorus
E-0-0-0-0-0-0-0--X-X-X-X-X-X-X--|
B-2-2-2-2-2-2-2xx3-3-3-3-3-3-3xx|
G-2-2-2-2-2-2-2xx2-2-2-2-2-2-2xx|
D-0-0-0-0-0-0-0xx0-0-0-0-0-0-0xx| repeat 4 times
A-0-0-0-0-0-0-0xx0-0-0-0-0-0-0xx|
E-3-3-3-3-3-3-3--X-X-X-X-X-X-X--|

Outro
E-------------------------------|
B-------------------------------|
G-2-2-2-2-2-2-2xx2-2-2-2-2-2-2xx|
D-X-X-X-X-X-X-Xxx0-0-0-0-0-0-0xx| repeat 3 times..then
A-4-4-4-4-4-4-4xx5-5-5-5-5-5-5xx|
E-2-2-2-2-2-2-2xx3-3-3-3-3-3-3xx|

E-------------------|
B-------------------|
G-2-2-2-2-2-2-2xx2~~|
D-X-X-X-X-X-X-Xxx0~~|
A-4-4-4-4-4-4-4xx5~~|
E-2-2-2-2-2-2-2xx3~~|

Intro
Verse
Verse(continued)
First Chorus
Verse
Verse(continued)
Bridge
Second Chorus
Outro

Lyrics:
Verse
Where have you been?
I've been waiting so long to hear from you.
And all the things that we said we would do,
remain to be plans of the past.

Chorus
We've been, we've been,
been quiet for too long.
Where is, where is,
the hope we once had?
Its too late to be saved by your charm.
We'll never get this right.

Verse
Your words are cold, and the season is too.
The comfort in your voice is gone.
Don't keep in touch.
I'm better off all alone.
You've lost everything that I loved.

Bridge
Is this worth this time?
Am I done in your mind?
Will I regret once you're gone?
Why did I ever think that we would, we would be good?

Chorus
We've been, we've been,
been quiet for too long.
Where is, where is,
the hope we once had?
Its too late to be saved by your charm.
We'll never get this right.

Outro
Alright, sorry I even tried.
I was a fool to have hope in you.
In you.
Comments