Danzig - Without Light I Am Chords & Tabs

 

Without Light I Am Chords & Tabs

Danzig Chords & Tabs

Version: 1 Type: Tab 0 ratings
1 star 2 stars 3 stars 4 stars 5 stars
comments

Without Light I Am Tab

WITHOUT LIGHT, I AM   by Danzig.
From the "I Luciferi" album. Tuning, lo to hi:  C F Bb Eb G C
Tabbed By Jake Strange (aka: Scumfuc)
I also tabbed one version Of "dead Inside", check it out, too.
Email:  jakestrange@chaosmagic.com

Part 1:
 c|--------------------------------|
 G|--------------------------------|
Eb|----9-------12---11---9---8-----|
Bb|----9-------12---11---9---8-----|
 F|----7-------10----9---7---6-----|
 C|--------------------------------|

Verses: (clean guitars)
 c|--------------------------------|
 G|--------------------------------|
Eb|--------------------------------|
Bb|--------------------------------|
 F|----7-------10----9---7---6-----|
 C|--------------------------------|

[ Tab from: http://www.guitartabs.cc/tabs/d/danzig/without_light_i_am_tab.html ]
Part after the verses:
 c|---------------------------------------------------|
 G|---------------------------------------------------|
Eb|---------------------------------------------------|
Bb|-----9--8-----7----------------9--8-----7----------|
 F|--7--------9---------------5/7-------9-----8-------|
 C|---------------------------------------------------|


End of the Song: (with lots of vocal overdubs & keyboards)
 c|------------------------------------------|
 G|------------------------------------------|
Eb|--6------8---9------------------8---9-----|
Bb|--x------x---x-----------7------x---x-----|
 F|--4------6---7-----------x------6---7-----|
 C|-------------------------5----------------| ...repeat & fade out.
Comments