Danzig - Night Besodom Chords & Tabs

 

Night Besodom Chords & Tabs

Danzig Chords & Tabs

Version: 1 Type: Tab 0 ratings
1 star 2 stars 3 stars 4 stars 5 stars
comments

Night Besodom Tab

   
DANZIG
"Night, BeSodom"
From the Circle of Snakes album.
Tabbed by Jake Strange.
Tuning, lo to hi: C F Bb Eb G C

Intro:
 c|------------------------||-------||
 G|------------------------||-------||
Eb|------------------------||-------||
Bb|------------------------||--4-4--||
 F|--2-----2h3--2----------||--4-4--||
 C|--0--------------2------||--2-2--||
[ Tab from: http://www.guitartabs.cc/tabs/d/danzig/night_besodom_tab.html ]
Verse:
 c|----------------------------------------||
 G|----------------------------------------||
Eb|----------------------------------------|
Bb|--2--------5--7--------2----------5--4--|
 F|--2--222---5--7--------2--222-----5--4--|
 C|--0--000---3--5--------0--000-----3--2--||
       pm--+                pm--+               

Chorus:
 c|----------------------------||
 G|----------------------------|
Eb|--------------------5---4---|   There are harmonics
Bb|----------------------------|   in this part as well.
 F|--2222222222222-----3---2---|   But this is all I know.
 C|--0000000000000-------------||
    pm------------+
Comments