Danzig - Mother Chords & Tabs

 

Mother Chords & Tabs

Danzig Chords & Tabs

Version: 5 Type: Tab 0 ratings
1 star 2 stars 3 stars 4 stars 5 stars
comments

Mother Tab

MOTHER Solo:


                                                      Full Full Full
e:--------------------------------------------------|-----------------------|
B:--------------------------------------------------|-/|\--/|\--/|\---------|
G:--------------------------------------------------|--|----|----|----------|
D:-------------------------7--9h7-----7--9h7--------|--|----|----|----------|
A:-----------5--7--5--7h9----------9----------9--7--|--9h7--9h7--9----------|
E:--7--5--7-----------------------------------------|-----------------------|
[ Tab from: http://www.guitartabs.cc/tabs/d/danzig/mother_tab_ver_5.html ]
                               Full              Full
                                |                 |           Full
e:---------------------------7--|---|------------10h7-----------|-----------|
B:--------------------7--10-----10--|--10-----7-----------------|-----------|
G:----------------------------------|---------------------10----10----------|
D:--------9-------------------------|---------------------------------------|
A:----------------------------------|---------------------------------------|
E:----------------------------------|---------------------------------------|

                   Full
e:-----------------|-----|
B:-----------------|-----|
G:---------15h17--17-----|
D:---/16-----------------|
A:-----------------------|
E:-----------------------|

e:---17--------17----17--------------17--------------|
B:-------------------17b-------------17b-------17h15-|
G:-------17b-----------------------------------------|
D:---------------------------------------------------|
A:---------------------------------------------------|
E:---------------------------------------------------|

                                 Full
                                  |
e:----------------------------19--24---|---------------24------------------|
B:---17--15--------------/19-----------|-----------------------------------|
G:-----------16------------------------|-----------------------------------|
D:-------------------------------------|-----------------------------------|
A:-------------------------------------|-----------------------------------|
E:-------------------------------------|-----------------------------------|
Comments