Danzig - Long Way Back From Hell Chords & Tabs

 

Long Way Back From Hell Chords & Tabs

Danzig Chords & Tabs

Version: 2 Type: Tab 0 ratings
1 star 2 stars 3 stars 4 stars 5 stars
comments

Long Way Back From Hell Tab

   
LONG WAY BACK FROM HELL
=======================
transcription: Jason Kessler, Liam Wolfen Cullen, Ryq

  verse riff:
   B      F  E         B    F  E     C
E|-------------------|-------------------|
B|-------------------|-------------------|
G|-------10--9-------|-----10--9---------|
D|-9-----10--9-------|-9---10--9--9/10---|
A|-9------8--7-------|-9----8--7--9/10---|
E|-7-----------------|-7----------7/-8---|

  fill:
G|---------------|
D|-9-7-----------|  Note:  This fill is played by both bass and guitar
A|-----9-8-7-5---|  at the end of the guitar solo.
E|-------------7-|

  outro chorus:
E|-------------------|---------------------|---------------------|
B|-------------------|---------------------|---------------------|
G|-------------------|---------------------|---------------------|
D|-5-------7---------|-------9---------9---|-------9---------9---|
A|-5-------7---------|-------9---------9---|-------9---------9---|
E|-3-------5---------|-7-7-7-7---7-7-7-7---|-7-7-7-7---7-7-7-7---|
                       pm-->     pm-->       pm-->     pm-->
[ Tab from: http://www.guitartabs.cc/tabs/d/danzig/long_way_back_from_hell_tab_ver_2.html ]
        -songflow-
-bass-              -guitar-
 (bass tacet)        B  A  D  A        w/trem dips
 B                   B
 B                   D  B         (3x) w/trem dips
 B  F#               D  F#
 B                   verse riff   (6x)
 B A B A             B A B A
 G A B  G A F#       G A B  G A F#
 B                   verse riff   (6x)
 B A B A             B A B A
 G A B  G A F#       G A B  G A F#
 B  D G A      (3x)  -solo-
 B D                 -solo-
 fill                fill
 B A D A B A D       B A D A B A D     w/trem dips
 F#                  F#
 B                   verse riff   (6x)
 B A B A             B A B A
 G  A  B       (3x)  outro chorus (3x)
 D  E                D  E              segues to "Snakes Of Christ"
Comments