Danzig - Cantspeak Chords & Tabs

 

Cantspeak Chords & Tabs

Danzig Chords & Tabs

Version: 1 Type: Bass Tab 0 ratings
1 star 2 stars 3 stars 4 stars 5 stars
comments

Cantspeak Bass Tab

   
Danzig - Can't Speak
Album: Danzig 4p
Bassist: Eerie Von
Tuning(Eb,Ab,Db,Gb)
Tabbed by metallicaslayer22

Intro
Gb------------------------------------------------------------------------|
Db------------------------------------------------------------------------|
Ab------------------------------------11-1-1-1-1-1-1-1-33-3-3-3-3-3-3-3-3-|
Eb-33-3-3-3-00-0-0-0-11-1-1-1-1-1-1-1-------------------------------------|
[ Tab from: http://www.guitartabs.cc/tabs/d/danzig/cantspeak_btab.html ]
Verse
Gb--------------------------------------------------------|
Db--------------------------------------------------------|
Ab------------------------------------11--------1------33-|
Eb-33-------00-------11-----------------------------------|

Chorus (or whatever its called play this in the static sounding part of the song)
Gb------------------------------------------------------------------------|
Db------------------------------------------------------------------------|
Ab------------------------------------11-1-1-1-1-1-1-1-33-3-3-3-3-3-3-3-3-|
Eb-33-3-3-3-00-0-0-0-11-1-1-1-1-1-1-1-------------------------------------|
Comments