Danzig - Black Angel White Angel Chords & Tabs

 

Black Angel White Angel Chords & Tabs

Danzig Chords & Tabs

Version: 1 Type: Tab 0 ratings
1 star 2 stars 3 stars 4 stars 5 stars
comments

Black Angel White Angel Tab

         ---------------------------------------------------------------
                     Black Angel / White Angel----------Danzig
         ---------------------------------------------------------------
tabbed by Luis Alvarez
e-mail:fiendfest@yahoo.com

  Tuning:EADGBe/standard
  
  Intro and Chorus Riff
e|------------------------------------------------------------------------|
B|------------------------------------------------------------------------|
G|------------------------------------------------------------------------|
D|--10---------10-10--------10/6-----6---6-6---6-6------------------------|
A|--10---------10-10--------10/6-----6---6-6---6-6------------------------|
E|--8--8-8-8-8-8--8-8-8-8-8-8-/4-4-4-4-4-4-4-4-4-4------------------------|
                                 pm.   .     . . 
[ Tab from: http://www.guitartabs.cc/tabs/d/danzig/black_angel_white_angel_tab.html ]
  Verse Riff
e|------------------------------------------------------------------------|
B|------------------------------------------------------------------------|
G|------------------------------------------------------------------------|
D|--10--------------------------------6-----------------------------------|
A|--10--------------------------------6---------------------------6-----6-|
E|--8--8-8-8-8-8-8-8-8-8-8-8-8-8-8-8-/4-4-4-4-4-4-4-4-4-4-4-4-4-4-4-4-4-4-|
    pm . . . . . . . . . . . . . . . PM . . . . . . . . . . . . .   . . 

  Fill for the last four lines of the verse
e|------------------------------------------------------------------------|
B|------------------------------------------------------------------------|
G|--8-8-8-7-7-8-8-8-7-7-8-8-8-8-7-7-8-8-8-7-7-8-8-8-8-7-7-----------------|
D|------------------------------------------------------------------------|
A|------------------------------------------------------------------------|
E|------------------------------------------------------------------------|
    palm mute all . . . . . . . . . . . . . . . . . . . . repeat



We've lost the light  another night
Kill these days and make them go away
Skulls on fire
The burning faces know  all hope is gone
Would you lie in wait or
Would you kill your brother 
Would you offer out your hand
Then unleash the dagger


Black Angel white angel
kneel down and lift from the waist up?
Dark angel white angel 
Come down and lay in the danger
Black Angel white angel
kneel down and lift from the waist up?


You've lost your way  Among the fray
The blackest days
Are waiting up ahead
Blazing skulls
The burning children know it's all a game
Would you die in pain or
Would you feel the maelstrom
Would you offer up the neccessary soul
Comments