Danzig - 1000 Devils Reign Chords & Tabs

 

1000 Devils Reign Chords & Tabs

Danzig Chords & Tabs

Version: 1 Type: Tab

1000 Devils Reign Tab

Intro/Main (play 8x)

E-----------------------------|
B-----------------------------|
G-----------------------------|
D--------6-6-6-6--------------|
A---8-8--4-4-4-4--8-----------|
E---6-6-----------6-----------|


Chorus(play 2X)

E--------------------------------------------------------------|
B--------------------------------------------------------------|
G--------------------------------------------------------------|
D------------------6-6-6-6-6-6-6-------------------------------|
A---8-8-8-8-8-8-8--4-4-4-4-4-4-4--8-8-8-8-8-8-8--6-6-6-6-6-6-6-|
E---6-6-6-6-6-6-6-----------------6-6-6-6-6-6-6--4-4-4-4-4-4-4-|


End Chorus(play 4x)
[ Tab from: http://www.guitartabs.cc/tabs/d/danzig/1000_devils_reign_tab.html ]
E---------------------------------------------------------------|
B---------------------------------------------------------------|
G---------------------------------------------------------------|
D---------------------------------------------------------------|
A--8-8-8-8-8-8-8--6-6-6-6-6-6-6-6--8-8-8-8-8-8-8-6-6-6-6-6-6-6--|
E--6-6-6-6-6-6-6--4-4-4-4-4-4-4-4--6-6-6-6-6-6-6-4-4-4-4-4-4-4--|

Verse During solo(play 9x)

E------------------------------------|
B------------------------------------|
G------------------------------------|
D-------6-6-6-6-------6-6-6-6--------|
A--8-8--4-4-4-4--8-8--4-4-4-4--------|
E--6-6-----------6-6-----------------|

(play end chorus again 4x)