Danny Elfman - This Is Halloween Chords & Tabs

 

This Is Halloween Chords & Tabs

Danny Elfman Chords & Tabs

Version: 1 Type: Tab 0 ratings
1 star 2 stars 3 stars 4 stars 5 stars
comments

This Is Halloween Tab

Hello. this is the intro for the song "this is halloween" from tim burton's nightmare 
christmas. well, here are the tabs... this is in standard tuning and should be very easy 
you to play. enjoy.

intro:
1----------------------------------------------------------------|
2-----------------8-8-8--8-9-------------9-8-8-8--8-9-------9-8--|
3----------------------------10-10-10-10--------------10-10------|
4--10-10-10-10---------------------------------------------------|
5--10-10-10-10---------------------------------------------------|
6----------------------------------------------------------------|

verse: boys and girls of every age....
1----------------------------------------------------------------|
2--8-8-8-8-8-9--------------------8-9-8--8-8-8-9-11-9-8----------|
3--------------10-10--10-10-10-10--------------------------------|
4----------------------------------------------------------------|
5----------------------------------------------------------------|
6----------------------------------------------------------------|
[ Tab from: http://www.guitartabs.cc/tabs/d/danny_elfman/this_is_halloween_tab.html ]
in our town of halloweeen... this is halloween....
1-------------------------------------------------------------------|
2-----------8-9--8-----8-----11-11-11-10-8--11-11-11-10-8--11-------|
3--10-10-10--------8-7----------------------------------------11-10-|
4-------------------------------------------------------------------|
5-------------------------------------------------------------------|
6-------------------------------------------------------------------|

...................this is halloween....
1-------------------------------------------------------------------|
2---------8-9-----12-12-12-11-9--12-12-12-11-9-12------------9-9----|
3--10-8-7-----------------------------------------12-11-9-----------|
4---------------------------------------------------------11--------|
5-------------------------------------------------------------------|
6-------------------------------------------------------------------|


well, that's about as far as i got, so it should at least give you a lead. i love this 
and i couldnt find tabs for it, so i decided to tab them myself. i hope you like it. : ) 
steven
Comments