Danny Elfman - Batman Theme Chords & Tabs

 

Batman Theme Chords & Tabs

Danny Elfman Chords & Tabs

Version: 1 Type: Tab 3 ratings
1 star 2 stars 3 stars 4 stars 5 stars
comments

Batman Theme Tab

e|---------------------------------------|
B|---------------------------------------|
G|---------------------------------------|
D|---------------3---2---1---------------|
A|---0---2---3---------------------------|
E|---------------------------------------|
[ Tab from: http://www.guitartabs.cc/tabs/d/danny_elfman/batman_theme_tab.html ]
e|---------------------------------------|
B|---------------------------------------|
G|--------------10---9-------------------|
D|---7---9/10----------------------------|
A|---------------------------------------|
E|---------------------------------------|

e|---------------------------------------|
B|-------------------7---8---------------|
G|---------------9-----------------------|
D|---7---9/10----------------------------|
A|---------------------------------------|
E|---------------------------------------|

e|---5---7---8----12---13---12-----------|
B|-------------------------------13/10---|
G|---------------------------------------|
D|---------------------------------------|
A|---------------------------------------|
E|---------------------------------------|
Comments