Danna, Jeff - Ross's Concert Chords & Tabs

 

Ross's Concert Chords & Tabs

Danna, Jeff Chords & Tabs

Version: 1 Type: Tab 0 ratings
1 star 2 stars 3 stars 4 stars 5 stars
comments

Ross's Concert Tab

   
**fixed the triplets. thanks

Ross’s Concert: This is a really awesome song from the indie movie “Uncorked.” The first time I heard it I wanted to play it, but couldn’t find the tabs anywhere, so I tabbed it myself. If you want to hear a clip of the actual song, go to www.jeffdanna.com and look in his discography for soundclips. There are also samples from the soundtrack on amazon.

Low E tuned down to D. Take your time with this one, it has a nice slow sound at first, and then works up to some cool stuff later on.
Note that this song is based around many pauses; after every phrase, let the notes ring out to give a sort of ethereal quality to the music. 
You will see that I have only included the ‘ands’ of the beats where the melody plays on the off beat. A couple times I have shifted these ‘ands’ a little to fit with the notes below, especially where triplets occur and it’s difficult to fit all the notes in a single bar.

REFERENCE:
h = hammer on
p = pull off
s = slide
h/p = hammer on, pull off

PART I

    1     2     3     4       1     2     3  +  4       1  +  2  +  3  +  4
                                            
                
E---2-----------0-----2---|---5---------------------|-------------------------|
B-------------------------|---------------3---------|---3-----------------3---|
G-------------------------|---------------------2---|------2-----2—-0 h4------|
D-------------------------|---------0--------0------|-------------------------|
A---2---------------------|-------------------------|-------------------------|
D-------------------------|---4---------------------|---5---------------------|



    1     2     3     4       1     2     3     4       1  +  2  +  3     4
                                            
                
E-------------------------|---2-----------0-----2---|---5-----7-----5---------|
B---3---------------------|-------------------------|-------------------------|
G---------------2---------|-------------------------|------6-----6------------|
D---------4---------------|-------------------------|-------------------------|
A-------------------------|---2---------------------|-------------------------|
D---0---------------------|-------------------------|---4---------------------|



    1  +  2  +  3     4   +   1     2     3     4       1  +  2  +  3  +  4   +
                                            
                	    {harmonics, pause for effect}
E-------------------------|-------------------------|---2-----------0-----2---|
B---3---------------------19------------------------|------2 p0---------------|
G------2 p0---------------|---19--------------------|-------------------------|
D------------0------------|-------------------------|-------------------------|
A-------------------------|-------------------------|---2--------2-----2------2
D---5---------------------|-------------------------|-------------------------|




    1  +  2  +  3  +  4   +   1  +  2  +  3  +  4       1  +     2  +  3  +  4
                                            
                					     {triplet}
E---5---------------------|-------------------------|--------------------------|
B---------2 s3--3-----2  s3---3-----------------2---|---3-----------3----------|
G-------------------------|------2 p0-----0 h4------|------------2-------------|
D------0-----------0------|------------0------------|------0-2-4-------4—-2--0-|
A-------------------------|-------------------------|--------------------------|
D---4---------------------|---5---------------------|---0----------------------|




    1  +  2  +  3  +  4   +   1  +  2  +  3     4       1  +  2  +  3  +  4   +
                                            
                
E---2-----------0-----2---|---5-----7-----5---------|---3-----------5---------|
B------2 p0---------------|-------------------------|-------------------------|
G-------------------------|------6-----6------------|------2 p0---------2 p0--|
D-------------------------|-------------------------|------------0------------0
A---2--------2-----2------0-------------------------|---------------2---------|
D-------------------------|---4---------------------|---5---------------------|



    1     2     3  +  4   +   1  +  2     3  +  4   +   1  +  2     3  +  4   +
                                            
             {strum}  						{strum}
E---7-----------5 h7--5---3---2---------------------|---------------5 h7--5---3
B---------------0---------|---------3--------2------3---------3-----0---------|
G---------------7---------|------2------------------|---2 h4--------7---------|
D---------------0---------|-------------------------|---------------0---------|
A---7---------------------|-------------------------|-------------------------|
D-------------------------|---0-----------4---------|---5---------------------|



    1  +  2     3  +  4   +   1  +  2     3  +  4   +   1  +  2     3  +  4   +
                                            
                
E---2--------------2 p0---|---------------5 h7--5---3---2---------------------|
B---------3---------------3---------3-----0---------|---------3--------2------3
G------2------------------|---2 h4--------7---------|------2------------------|
D-------------------------|---------------0---------|-------------------------|
A---2-----------0---------|-------------------------|-------------------------|
D-------------------------|---5---------------------|---0-----------4---------|




    1  +  2  +  3  +  4   +   1  +  2  +  3  +      4  +   1     2     3     4
                                           {triplet}
                			         h/p	   {strum, let ring}
E---10----------9-----7---|---2-----------2------------|---2---------------------|
B-------------------------|------3 p2--3-----2-3-2--0--|---3---------------------|
G---0-----0---------------|----------------------------2---4---------------------|
D------7-----0-----0------0----------------------------|---0---------------------|
A---------------0---------|----------------------------|---x---------------------|
D-------------------------|----------------------------|---5---------------------|



PART II
The triplets here are played with the second and fourth fingers, with the first finger on the G string and the third finger on the B string. Hammer on each note in the triplet.


  1  +      2  +  3  +  4   +   1 +      2  +  3  +  4       1 +      2  +  3  +  4
                                            
    triplet           	       triplet          {strum}    triplet
E---------------------------|------------------------0---|----------------------------|
B--------------3------------|---------------3--------3---|---------------3------------|
G-----------2-----2-----0  h2------------2--------2--0---|------------2-----2-----0  h2
D----0-2-4-----------4------|-----0-2-4--------------0---|-----0-2-4-----------4------|
A---------------------------|----------------------------|----------------------------|
D-0-------------------------|---0------------------------|---0------------------------|



   1  +      2  +  3  +  4   +   1 +      2  +  3  +  4   +   1 +      2  +  3  +  4
                                            
     triplet            					     triplet    {strum}
E----------------------------|----------------------------|------------------2--0------|
B---------------3------------|---------------3------------|---------------3--3-----3---|
G------------2---------------|------------2-----2-----0  h2------------2-----4---------|
D-----0-2-4-----------4--2---0-----0-2-4-----------4------|-----0-2-4--------0---------|
A----------------------------|---2------------------------|---2------------------------|
D--0-------------------------|----------------------------|----------------------------|



    1  +  2  +  3  +  4   +   1  +  2  +  3  +  4   +   1 +      2  +  3  +  4   +
                                            
                					       triplet
E---3-----------5---------|---7-----9-----10----9--10----------------------------|
B-------------------------|-------------------------|---------------3------------|
G------2 p0--------2 p0---|------0-----0-----0------|------------2-----2-----0  h2
D------------0------------0-------------------------|-----0-2-4----------4-------|
A---------------2---------|---7---------------------|----------------------------|
D---5---------------------|-------------------------|---0------------------------|



[ Tab from: http://www.guitartabs.cc/tabs/d/danna_jeff/rosss_concert_tab.html ]
    1  +  2  +  3  +  4   +   1 +      2  +  3  +  4   +   1  +  2  +  3  +  4   +
                                            
                		    triplet
E---2-----------0---------|----------------------------|---2-----------0---------|
B---------3-----------3---|---------------3------------|---------3-----------3---|
G------------------0------|------------2-----2-----0  h2------------------0------|
D------------4------------4-----0-2-4-----------4------|------------4------------4
A-------------------------|----------------------------|-------------------------|
D------0------------------|---0------------------------|------0------------------|



    1 +      2  +  3  +  4   +   1  +  2  +  3  +  4   +   1  +  2  +  3  +  4   +
                                            
                
E----------------------------|---2-----------0---------|---3-----------5---------|
B---------------3------------|---------3-----------3---|-------------------------|
G------------2-----2-----0  h2------------------0------|------2 p0--------2 p0---|
D-----0-2-4-----------4------|------------4------------4------------0------------0
A---2------------------------|------0------------------|---------------2---------|
D----------------------------|-------------------------|---5---------------------|



    1     2     3  +  4   +   1  +  2     3  +  4   +   1  +  2     3  +  4   +
                                            
             {strum} 
E---7-----------5 h7--5---3---2---------------------|---------------5 h7--5---3
B---------------0---------|---------3--------2------3---------3-----0---------|
G---------------7---------|------2------------------|----2h4--------7---------|
D---------------0---------|-------------------------|---------------0---------|
A---7---------------------|-------------------------|-------------------------|
D-------------------------|---0-----------4---------|----5--------------------|



    1  +  2     3  +  4   +   1  +  2     3  +  4   +   1  +  2     3  +  4   +
                                            
                
E---2--------------2 p0---|---------------5 h7--5---3---2---------------------|
B---------3---------------3---------3-----0---------|---------3--------2------3
G------2------------------|---2 h4--------7---------|------2------------------|
D-------------------------|---------------0---------|-------------------------|
A---2-----------0---------|-------------------------|-------------------------|
D-------------------------|---5---------------------|---0-----------4---------|




    1  +  2  +  3  +  4   +   1  +  2  +  3 +     4   +   1     2     3     4
                                           triplet 
                				 h/p	     {strum, let ring}
E---10----------9-----7---|---2-----------2-----------|---2---------------------|
B-------------------------|------3 p2--3----2-3-2-0---|---3---------------------|
G---0-----0---------------|---------------------------2---4---------------------|
D------7-----0-----0------0---------------------------|-------------------------|
A---------------0---------|---------------------------|-------------------------|
D-------------------------|---------------------------|---5---------------------|




    1  +  2  +  3  +  4   +   1  +  2  +  3     4       1  +  2  +  3  +  4
                                            
                
E-------------------------|---------------5--7--5---3-------------------------|
B----3----3---3----3----3-|---3---3----3------------|----3----3---3-----------|
G------2----2---2---2-----2-----2---2---2-----------|------2----2---2--2h4-2--|
D---0---0----0---0----0---|-0----0----0---7--9--7---5---0---0----0---0--------0
A-------------------------|-------------------------|-------------------------|
D-------------------------|-------------------------|-------------------------|




    1   +   2   +   3  +  4   +   1  +  2  +  3  +  4    +  1   +   2   +  3  +  4   +
        {strumming}                                  
    triplets  
E---x-x-x-x-x-x-x---5--7--5---3--------------------------|--x-x-x-x-x-x-x--5--7--5---3
B---3-3-3-2-2-2-3-------------|-----3---3---3---3--3--3--|--3-3-3-2-2-2-3------------|
G---0-0-0-0-0-0-0-------------|------2----2----2--0--2---|--0-0-0-0-0-0-0------------|
D---0-0-0-0-0-0-0---7--9--7---5---0----0---0--0--0--4----0--0-0-0-0-0-0-0--7--9--7---5
A---x-x-x-x-x-x-x-------------|--------------------------|--x-x-x-x-x-x-x------------|
D---5-5-5-5-5-5-5-------------|--------------------------|--5-5-5-5-5-5-5------------|




    1  +  2  +  3  +  4  +    1   +   2  +  3   +   4   +      1     2     3     4
                                            
                                              Continue strumming, but emphasize these:
E------------------------|----x-x-x-x--x-x-x--x-x-x-x-x-x-x----0-----x-----x----0----|
B-----------------------3|-3--3-3-3-3--3-3-3--3-3-3-3-3-3-3----0-----7-----7----10---|
G-----2--2--2--2--2--2-2-|2---0-0-0-0--0-0-0--0-0-0-0-0-0-0----0-----7-----7----11---|
D----0--0--0--0--0--0-0--2----0-0-0-0--0-0-0--0-0-0-0-0-0-0----7-----x-----x----0----|
A---2--4--2--0--2--3-----|----x-x-x-x--x-x-x--x-x-x-x-x-x-x----7-----9-----9----0----|
E------------------------|----5-5-5-5--5-5-5--5-5-5-5-5-5-5----0-----0-----0----0----|
 					      |



    1     2     3     4       1   2   3   4     1  2  3  4      1    2    3    4
                              Csus              G
                          Fast strumming       slide up, continue
E---0-----x-----x----0----|---x--------------|--x-----------|---0----x----x----0--|
B---0-----7-----7----10---|---1--------------|--3-----------|---0----7----7----10-|
G---0-----7-----7----11---|---0--------------|--0-----------|---0----7----7----11-|
D---7-----x-----x----0----|---3--------------|--5-----------|---7----x----x----0--|
A---7-----9-----9----0----|---3--------------|--5-----------|---7----9----9----0--|
E---0-----0-----0----0----|---3--------------|--5-----------|---0----0----0----0--|




    1     2     3     4       1     2     3     4       1     2     3     4
                              Csus                      G
                            Fast strumming       slide up, continue
E---0-----x-----x----0----|---x----------------------|--x----------------------|
B---0-----7-----7----10---|---1----------------------|--3----------------------|
G---0-----7-----7----11---|---0----------------------|--0----------------------|
D---7-----x-----x----0----|---3----------------------|--5----------------------|
A---7-----9-----9----0----|---3----------------------|--5----------------------|
D---0-----0-----0----0----|---3----------------------|--5----------------------|



    1     2     3     4       1     2     3  +  4   +   1     2     3     4
    G                                                   D
 Start softly from the bottom, and get LOUD             strum...
E---x---------------------|---------------5--7--5---3---2---------------------|
B---3---------------------|---------------0--0--0---0---3---------------------|
G---0---------------------|-------------------------|---2---------------------|
D---5---------------------|-------------------------|---0---------------------|
A---5---------------------|-------------------------|---0---------------------|
D---5---------------------|-------------------------|---0---------------------|



    1     2     3  +  4   +   1     2     3     4       1     2     3  +  4   +
    G                         D                         G
    strum...                strum...
E---3-----------5--7--5---3---2---------------------|---3-----------5--7--5---3
B---3-----------0--0--0---0---3---------------------|---3-----------0--0--0---0
G---0---------------------|---2---------------------|---0---------------------|
D---0---------------------|---0---------------------|---0---------------------|
A---2---------------------|---0---------------------|---2---------------------|
D---0---------------------|---0---------------------|---0---------------------|



    1     2     3     4       1     2     3     4       1
    Bm                        G                         D
                                                      Strum once, let ring
E---2---------------------|---3---------------------|---2----|
B---3---------------------|---3---------------------|---3----|
G---4---------------------|---0---------------------|---2----|
D---4---------------------|---0---------------------|---0----|
A---2---------------------|---2---------------------|---0----|
D---0---------------------|---0---------------------|---0----|

Comments