Danko Jones - Sound Of Love Chords & Tabs

 

Sound Of Love Chords & Tabs

Danko Jones Chords & Tabs

Version: 2 Type: Tab 0 ratings
1 star 2 stars 3 stars 4 stars 5 stars
comments

Sound Of Love Tab

^ = pull the string up

e----------------------------^------------------------------\
b----------------------------5------------------------------ \
g--4-6-6--4-6-6--4-6-6--4-6--4-6----------------------------  \
d----------------------------2------------------------------  /x4
a----------------------------------------------------------- /
e-----------------------------------------------------------/


e-----------------------------\
b----------------------------- \
g-6---6-6---6-6---6-6---------  \
d-6---6-6---6-6---6-6---------  /x2
a-4---4-4---4-4---4-4--------- /
e-----------------------------/

e-----------------------------
b-----------------------------
g-6-4---4-4---4-6---6-6-------
d-6-4---4-4---4-6---6-6-------
a-4-2---2-2---2-4---4-4-------
e-----------------------------

e-----------------------------
b-----------------------------
g-6---6-6---6-6---6-6---------
d-6---6-6---6-6---6-6---------
a-4---4-4---4-4---4-4---------
e-----------------------------

e-----------------------------
b-----------------------------
g-6-4---4-4---4-6---6-6-------
d-6-4---4-4---4-6---6-6-------
a-4-2---2-2---2-4---4-4-------
e-----------------------------

e----------------------------------\
b---------------------------------- \
g-------------^-----^--------------  \
d-------^-----2---0-3---0-2--------  /x3
a-----2-4---2---------------4-2-4-- /
e-0-2------------------------------/

e----------------------------------
b----------------------------------
g----------------------------------
d----------------------------------
a----------------------------------
e-0-2--0-2--0-2--0-2-2-0-----------
[ Tab from: http://www.guitartabs.cc/tabs/d/danko_jones/sound_of_love_tab_ver_2.html ]
e-----------------------------\
b----------------------------- \
g-6---6-6---6-6---6-6---------  \
d-6---6-6---6-6---6-6---------   \
a-4---4-4---4-4---4-4---------    \
e-----------------------------     \
                                    >x2
e-----------------------------     /
b-----------------------------    /
g-6-4---4-4---4-6---6-6-------   /
d-6-4---4-4---4-6---6-6-------  /
a-4-2---2-2---2-4---4-4------- /
e-----------------------------/

e------
b------
g------
d--2---
a--2---
e--0---

e----------------------------------\
b---------------------------------- \
g-------------^-----^--------------  \
d-------^-----2---0-3---0-2--------  /x3
a-----2-4---2---------------4-2-4-- /
e-0-2------------------------------/

e----------------------------------\
b---------------------------------- \
g-------------^-----^--------------  \
d-------^-----2---0-3---0-2--------   \
a-----2-4---2---------------4-2-4--    \
e-0-2------------------------------     \
                                         >x2
e----------------------------------     /
b----------------------------------    /
g----------------------------------   /
d----------------------------------  /
a---------------------------------- /
e-0-2--0-2--0-2--0-2-2-0-----------/

e----------------------------------
b----------------------------------
g----------------------------------
d----------------------------------
a----------------------------------
e-0-2--0-2--0-2--0-2-2-0-----------

    this is partially muted
e------------------------------^---------\
b------------------------------7--------- \
g------------------------------6---------  \
d------------------------------4---------  /x4
a-0-2-2---0-2-2---0-2-2---0-2------------ /
e----------------------------------------/

e-----------------------------
b-----------------------------
g-2-4-4-2-4-4-2-4-4-2-4-7-4---
d-2-4-4-2-4-4-2-4-4-2-4-7-4---
a-0-2-2-0-2-2-0-2-2-0-2-5-2---
e-----------------------------

ok if i did a solo it would take me 3 days cuz i make sure every not is
right, so ill just wait and if i ever get asked to make the solo ill do it.



you know how the rest of the song goes, its the same stuff as above.
Comments