Danko Jones - Lovercall Chords & Tabs

 

Lovercall Chords & Tabs

Danko Jones Chords & Tabs

Version: 1 Type: Tab 0 ratings
1 star 2 stars 3 stars 4 stars 5 stars
comments

Lovercall Tab

This tab is in standard tuning (ebgdae)

Legend
~=vibrato (very quick string bends)


Bass riff
G|---2-0----------------2-0-----------|
D|-------0------------------0---------|
A|-0-------0-----0-0--0-------0-----0-|
E|-----------1-3----------------1-3---|

Interlude
e|--------------------------------------|
B|--------------------------------------|
G|--------------------------------------|
D|-7-7-7-7--7--7-7-7-7--7-7-7-7--7--7-7-|
A|-7-7-7-7--7--7-7-7-7--7-7-7-7--7--7-7-|
E|-5-5-5-5--5--5-5-5-5--5-5-5-5--5--5-5-|
[ Tab from: http://www.guitartabs.cc/tabs/d/danko_jones/lovercall_tab.html ]
Chorus 1
e|----------------------------------------------|
B|----------------------------------------------|
G|----------------------------------------------|
D|-10-10-10-10--5--7-7-7-7--10-10-10-10--5--7-7-|
A|-10-10-10-10--5--7-7-7-7--10-10-10-10--5--7-7-|
E|--8--8--8--8--3--5-5-5-5---8--8--8--8--3--5-5-|

Chorus 2 (the Neato sounding part)
e|----------12-------13-12--------15-13-12-------13-12---------------------|
B|----13-------13----------13--------------13----------13------------------|
G|-14----14-------14----------14--------------14---------------------------|
D|-------------------------------------------------------------------------|
A|---------------------------------------------------------14-15-15-15--12~|
E|-------------------------------------------------------------------------|

Song Layout
Bass riff x3
interlude x2
Bass riff x4
Chorus 1 x2
Chorus 2 x2
Bass riff x4
Chorus 1 x2
Chorus 2 x4
Comments