Danko Jones - Forget My Name Chords & Tabs

 

Forget My Name Chords & Tabs

Danko Jones Chords & Tabs

Version: 1 Type: Tab 0 ratings
1 star 2 stars 3 stars 4 stars 5 stars
comments

Forget My Name Tab

   
-------------------------------------------------------------------------------
			 Forget My Name - Danko Jones
-------------------------------------------------------------------------------
Tabbed by:wildstyle
Email:wildstyle_009@msn.com

Chorus
e|---------------------------------------------------------------------------|
B|---------------------------------------------------------------------------|
G|----6----------------------------------------------------------------------|
D|----6---6---8--------4---4---6---6-----------------------------------------|
A|----4---6---8---X8---4---4---6---6-----------------------------------------|
E|--------4---6--------2---2---4---4-----------------------------------------|

e|---------------------------------------------------------------------------|
B|---------------------------------------------------------------------------|
G|---------------------------------------------------------------------------|
D|-----------------------------------------------4--4--6--6------------------|
A|-----------4--6------------------4--6----------4--4--6--6------------------|
E|----4--6-----------4--6---4--6----------4--6---2--2--4--4------------------|

e|---------------------------------------------------------------------------|
B|---------------------------------------------------------------------------|
G|---------------------------------------------------------------------------|
D|---------------------------------------------------------------------------|
A|-----------4--6-------------------4--6-------------------------------------|
E|---4--6-----------4--6---4--6-----------4--6-------------------------------|
REPEAT CHORUS
[ Tab from: http://www.guitartabs.cc/tabs/d/danko_jones/forget_my_name_tab.html ]
(VERSE)
e|---------------------------------------------------------------------------|
B|---------------------------------------------------------------------------|
G|---------------------------------------------------------------------------|
D|---4--4---6--6-------------------------------------------------4--4--------|
A|---4--4---6--6-----------4--6-------------------4--6-----------4--4--------|
E|---2--2---4--4---4--6-----------4--6---4--6-------------4---6--2--2--------|

e|---------------------------------------------------------------------------|
B|---------------------------------------------------------------------------|
G|---------------------------------------------------------------------------|
D|---6--6--------------------------------------------------------------------|
A|---6--6-----------4--6----------------4--6-----------------4--6------------|
E|---4--4---4--6-----------4--6---4--6---------4--6---4--6----------4--6-----|

e|---------------------------------------------------------------------------|
B|---------------------------------------------------------------------------|
G|--------------------------------------6---6---6----------------------------|
D|------------------------4-r---6-r-----6---6---6----------------------------|
A|----------4--6----------4-r---6-r-----4---4---4----------------------------|
E|---4--6----------4--6---2-r---4-r------------------------------------------|

e|---------------------------------------------------------------------------|
B|---------------------------------------------------------------------------|
G|---------------------------------------------------------------------------|
D|---------------------------------------------------------------------------|
A|------------------------------------------------------4v--6v--X4-----------|
E|---0-4-5-6-0-4-5-6-0-4-5-6-0-4-5-6-0-4-5-6-0-4-5-6-0----------X4-----------|
CHORUS

Repeat Verse

I no how annoyin it gets when ppl say srry its my 1st tab and if netins wrong plz be nice
well it is my first time and if anything is wrong i dont care comeone its my 1st year to
im only 12 not bad u gotta admit

| /  slide up
| \  slide down
| h  hammer-on
| p  pull-off
| r  let it ring
| ~  vibrato
| +  harmonic
| x  Mute note
===============================================================================
Comments