Danko Jones - First Date Chords & Tabs

 

First Date Chords & Tabs

Danko Jones Chords & Tabs

Version: 1 Type: Tab

First Date Tab

---------------------------------------------------------------------------------------
				Danko Jones - First Date
---------------------------------------------------------------------------------------

Song: First Date
Artist: Danko Jones
Album: Sleep Is The Enemy
Label: Bad Taste Records (2006)

Tabbed by: Laurens Brunt

Tuning: Standard (EADGBE)

Intro/Verse
e--------------------------|
a--------------------------|
d--------------------------|
g--------------------------| : 6x
b-2--2-5-2--2-5-7--7-5-2---|
e-0--0-3-0--0-3-5--5-3-0---|

Build to chorus
e--------------------------------------|
a--------------------------------------|
d--------------------------------------|
g--------------------------------------|
b-99999999999999--222--99999999999999--|
e-77777777777777--000--77777777777777--|
[ Tab from: http://www.guitartabs.cc/tabs/d/danko_jones/first_date_tab.html ]
1st Chorus
e---------------------------------------             ---------------------|
a---------------------------------------             ---------------------|
d---------------------------------------             ---------------------|
g-9999999999999-7777-12121212-99999999-- 2x and then ---------------------|
b-7777777777777-5555-10101010-77777777--             --99999999999999999--|
e---------------------------------------             --77777777777777777--|

2nd Chorus
e---------------------------------------             ------------------------------|
a---------------------------------------             ------------------------------|
d---------------------------------------             ------------------------------|
g-9999999999999-7777-12121212-99999999-- 4x and then ------------------------------|
b-7777777777777-5555-10101010-77777777--             --99999999999999-77777777777~-|
e---------------------------------------             --77777777777777-55555555555~-|

Bridge
e--------------|
a--------------|
d--------------|
g--------------|
b--7--7--7--7--|
e--5--5--5--5--|