Daniels Charlie - Long Haired Country Boy Chords & Tabs

 

Long Haired Country Boy Chords & Tabs

Daniels Charlie Chords & Tabs

Version: 1 Type: Tab 2 ratings
1 star 2 stars 3 stars 4 stars 5 stars
comments

Long Haired Country Boy Tab

   
Long Haired Country Boy
by Charlie Daniels

      D
------2-------2-------2-------2------------------------------------
------3-------3-------3-------3------------------------------------
------2-------2-------2-------2-------------------3-2-0------------
--0---0-------0---0---0-------0--------0---3~--0--------3-2-0------
----------0---------------0-------0--2---2-------------------------
-------------------------------------------------------------------
[ Tab from: http://www.guitartabs.cc/tabs/d/daniels_charlie/long_haired_country_boy_tab.html ]
                       C                          D
--------------------------------------------------2----------------
--------------------------------------------------3----------------
--------------------------------------------------2----------------
------0-2-0---------------0---0---0---0---0-------0----------------
--0-2-------------------3---2---0----------------------------------
------------------------------------3---2---0----------------------

Thats the intro!

Any questions e-mail me at nightmoves_83@yahoo.com
Comments