Daniel Lakens - On A Mission Chords & Tabs

 

On A Mission Chords & Tabs

Daniel Lakens Chords & Tabs

Version: 1 Type: Bass Tab 0 ratings
1 star 2 stars 3 stars 4 stars 5 stars
comments

On A Mission Bass Tab

   
Tabbed by Beltesassar, From the Album "Mind Fashion Boutique" by Daniel 
Lakens



ON A MISSION

MUSIC & LYRICS: DANIEL LAKENS

BASS TAB

VERSE

   C                Am
G|----------------|----------------|
D|------------2-3-|/7----7-5-------|
A|-3---3----------|----------8-7-5-|
E|----------------|----------------|
  (3 TIMES)

G|----------------|----------------|
D|-----5-------5--|-----5-------5--|
A|----------------|----------------|
E|-3-3---3---3----|-3-3---3---3----|

CHORUS
[ Tab from: http://www.guitartabs.cc/tabs/d/daniel_lakens/on_a_mission_btab.html ]
   F                G
G|----------------|---------77-5-4-|
D|-3-3-33-33--2-3/|-5-5--55--------|
A|----------------|----------------|
E|----------------|----------------|

   Am               F
G|-2---2-2---2-2--|----------------|
D|----------------|-3---3-3---3-3--|
A|----------------|----------------|
E|----------------|----------------|

BRIDGE

   C                 G
G|----------------||----------------|
D|----------------||----------------|
A|-3--3-3---3-3-3-||----------------|
E|----------------||-3--3-3---3-3-3-|

   F                 G
G|----------------||----------------|
D|----------------||----------------|
A|----------------||----------------|
E|-1--1-1---1-1-1-||-3--3-3---3-3-3-|
Comments